Song name
# A B C D E F G H I J K L M N O P Q R S T U V W X Y Z

Misc Unsigned Bands - The Kabeedies - Lovers Ought To tab

I tabbed all of this by ear, so if you have any changes/questions, e-mail me at
matt_ere07@hotmail.co.uk.#

 E -----------------|
 B -----------------|
 G -9-9-9----4-4-4--|   X2 intro
 D -9-9-9----4-4-4--|
 A -7-7-7----2-2-2--|
 E -----------------|

 E -------12-9-------------------9-7-------------------|
 B ------------12-9------------------9-7---------------|
 G -9-9-9-----------11----4-4-4----------9-9-----------| X5 verse
 D -9-9-9-----------------4-4-4------------------------|
 A -7-7-7-----------------2-2-2------------------------|
 E ----------------------------------------------------|


 E -------------------------------------------------------------------|
 B -------------------------------------------------------------------|
 G -9-9----9-9-9----9-9-9----9-9-9-9-9-9-9----4-4----4-4-4----4-4-4---|
 D -9-9----9-9-9----9-9-9----9-9-9-9-9-9-9----4-4----2-2-2----4-4-4---|
 A -7-7----7-7-7----7-7-7----7-7-7-7-7-7-7----2-2----2-2-2----2-2-2---|
 E -------------------------------------------------------------------|

   ---------------|
   ---------------|
   -4-4-4-4-4-4-4-|
   -4-4-4-4-4-4-4-| X2 chorus
   -2-2-2-2-2-2-2-|
   ---------------|


  E -----------------------------------------|
  B -----------------------------------------|
  G -9-9-9----4-4-4--------------------------|
  D -9-9-9----4-4-4--------------------------| X2 pre-chorus
  A -7-7-7----2-2-2--------------------------|
  E -----------------------------------------|


 Verse X5

 Chorus X2

 Pre - Chorus X1

 Chorus X1

 That's pretty much it :D
Tap to rate this tab
 
# A B C D E F G H I J K L M N O P Q R S T U V W X Y Z