Song name
# A B C D E F G H I J K L M N O P Q R S T U V W X Y Z

Misc Unsigned Bands - Civil Disobedience - Faith Not Sight tab

----------------------------------------------------------------------------
			   Faith Not Sight - Civil Disobience
----------------------------------------------------------------------------
Tabbed by: Colin

This is my 1st tab I didn't really know what i was doing(with the tabbing part)
but I've been playing for a while and I know this is right.

Tuning: Standard E,A,D,G,B,e

Rhythm Guitar -
Intro & Verse

e|--------------------------------------------------------------------------|
B|--------------------------------------------------------------------------|
G|---7-7--7-7-7--7--10-10--10-----------7-7--7-7-7--7-----------------------|
D|---7-7--7-7-7--7--10-10--10-10-10-10--7-7--7-7-7--7--8-8--8--10-10-10-----|
A|---5-5--5-5-5--5--8--8---8--10-10-10--5-5--5-5-5--5--8-8--8--10-10-10-----|
E|----------------------------8--8--8------------------6-6--6--8--8--8------|

Chorus

e|---------------------------------------------------------------------|
B|---------------------------------------------------------------------|
G|--77--33-------------------------------------------------------------|
D|--77--33--33--55-----------------------------------------------------|
A|--55--11--33--55-----------------------------------------------------|
E|----------11--33-----------------------------------------------------|

Lead Guitar - D minor Pentatonic
Verse

e|-------10----------10----------10----10-13-10----------10----------------------------|
B|-10-13----13-10-13----13-10-13----13----------13-10-13---13-101010-10-101010-10------|
G|-------------------------------------------------------------------------------------|
D|---------------------------------------------------------------------------------12--|
A|-------------------------------------------------------------------------------------|
E|-------------------------------------------------------------------------------------|

Bridge
  Part I                    Part II          Part III
e|-10------------------------10-----------------101010-131313-151515-171717--|
B|-10--13-10-13b15r10--------10-13-10-13-10-----101010-131313-151515-171717--|
G|---------------------------------------------------------------------------|
D|---------------------------------------------------------------------------|
A|---------------------------------------------------------------------------|
E|---------------------------------------------------------------------------|

************************************

| /   slide up
| \   slide down
| h   hammer-on
| p   pull-off
| ~   vibrato
| +   harmonic
| x   Mute note
| b   Bend
| pb  Pre-bend
| br  Bend release
| pbr Pre-bend release
| brb Bend release bend

************************************
Tap to rate this tab
 
# A B C D E F G H I J K L M N O P Q R S T U V W X Y Z