Misc Unsigned Bands - Ispystrangers - If They Move Killem tab

hey this is my version of if they move, kill'em

www.myspace.com/ispystrangers

i love this band and they've got some great songs :) i cant pick out the both 
guitars so ive only tabbed the main guitar parts

tuning (Db Ab Db Gb Bb eb)

intro
|-------------------------------------------|
|-------------------------------------------|
|------7~-----9~-----10~--5/7-5--5/10-9-----|
|------------------------------7--------10--|
|--000----000----000------------------------|
|--000----000----000------------------------|

verse
|---------------------------------------------|
|---------------------------------------------|
|--/10-9----------------/10-9-----------------|
|--------10-10/12-10----------10-10/12-10-----|
|--------------------12-------------------12--|
|---------------------------------------------|

|-------------------------------------------------------------------------|
|-------------------------------------------------------------------------|
|-------------------------------------------------------------------------|
|--00-15-0-14-0-10-0-14-0-10-0-10h12-10-0-15-0-14-0-10-0-14-0-10-0-10h12--|
|-------------------------------------------------------------------------|
|-------------------------------------------------------------------------|

repeat whole thing twice 

then play
|----------------------------------------|
|----------------------------------------|
|----------------------------------------|
|-------------------------------7--6--5--|
|-------------------------------5--6--5--|
|--0-00-3-5-0-00-6-5-0-00-3-5-0----6--5--|

|-----------------------------------------|
|-----------------------------------------|
|-----------------------------------------|
|--0-00-3-5-0-00-6-5-0-00-3-5-0--7--6--5--| 
|--0-00-3-5-0-00-6-5-0-00-3-5-0--5--6--5--|
|--0-00-3-5-0-00-6-5-0-00-3-5-0-----6--5--|

|-----------------------------------------|
|-----------------------------------------|
|-----------------------------------------|
|--0-00-3-5-0-00-6-5-0-00-3-5-0--7--7--7--| 
|--0-00-3-5-0-00-6-5-0-00-3-5-0--5--5--5--|
|--0-00-3-5-0-00-6-5-0-00-3-5-0-----------|

chorus
|---------------------------------------------------------------------------|
|---------------------------------------------------------------------------|
|---------------------------------------------------------------------------|
|--00-15-0-14-0-10-0-14-0-10-0-10h12-8-0-15-0-14-0-10-0-14-0-10-0-10h12-10--|
|---------------------------------------------------------------------------|
|---------------------------------------------------------------------------|

|----------------------------------------------|
|----------------------------------------------|
|----------------------------------------------|
|--00-15-0-14-0-10-0-14-0-10-0-10h12--3--5--0--|
|-------------------------------------3--5--0--|
|-------------------------------------3--5--0--|

|---------------------------------------------------------------------------|
|---------------------------------------------------------------------------|
|---------------------------------------------------------------------------|
|--00-15-0-14-0-10-0-14-0-10-0-10h12-8-0-15-0-14-0-10-0-14-0-10-0-10h12-10--|
|---------------------------------------------------------------------------|
|---------------------------------------------------------------------------|

|-------------------------------------------------------------|
|-------------------------------------------------------------|
|-------------------------------------------------------------|
|--00-15-0-14-0-10-0-14-0-10-0-10h12--3--5--0--3--5--0----0~--|
|-------------------------------------3--5--0--3--5--0----0~--|
|-------------------------------------3--5--0--3--5--0----0~--|

drums play for a bit

then play
|---------------------|
|---------------------|
|--5/7-5---5/10-9-----|
|--------7--------10--|
|---------------------|
|---------------------|

verse
|---------------------------------------------|
|---------------------------------------------|
|--/10-9----------------/10-9-----------------|
|--------10-10/12-10----------10-10/12-10-----|
|--------------------12-------------------12--|
|---------------------------------------------|

|-------------------------------------------------------------------------|
|-------------------------------------------------------------------------|
|-------------------------------------------------------------------------|
|--00-15-0-14-0-10-0-14-0-10-0-10h12-10-0-15-0-14-0-10-0-14-0-10-0-10h12--|
|-------------------------------------------------------------------------|
|-------------------------------------------------------------------------|

repeat whole thing twice 

|----------------------------------------------|
|----------------------------------------------|
|--7~-7/9~-9/10~-10/12~-12-10-9h10p9-----------|
|------------------------------------12-10h12--|
|----------------------------------------------|
|----------------------------------------------|

|----------------------------------------------|
|----------------------------------------------|
|--7-x16--9-x16--10-x16--12-x16-(slowly bend)--|
|----------------------------------------------|
|----------------------------------------------|
|----------------------------------------------|

breakdown
|-------------------------------------------|
|-------------------------------------------|
|-------------------------------------------|
|--0---------0---------0---------0----------|
|--0-00-0000-0-00-0000-0-00-0000-0-00-0000--|
|--0-00-0000-0-00-0000-0-00-0000-0-00-0000--|

|-----------------------|
|-----------------------|
|----11-11-11-11-11-11--|
|--0-14-14-14-14-14-14--| x4
|--0--------------------|
|--0--------------------|

chorus
|---------------------------------------------------------------------------|
|---------------------------------------------------------------------------|
|---------------------------------------------------------------------------|
|--00-15-0-14-0-10-0-14-0-10-0-10h12-8-0-15-0-14-0-10-0-14-0-10-0-10h12-10--|
|---------------------------------------------------------------------------|
|---------------------------------------------------------------------------|

|----------------------------------------------|
|----------------------------------------------|
|----------------------------------------------|
|--00-15-0-14-0-10-0-14-0-10-0-10h12--3--5--0--|
|-------------------------------------3--5--0--| x3
|-------------------------------------3--5--0--|

|---------------------------------------------------------------------------|
|---------------------------------------------------------------------------|
|---------------------------------------------------------------------------|
|--00-15-0-14-0-10-0-14-0-10-0-10h12-8-0-15-0-14-0-10-0-14-0-10-0-10h12-10--|
|---------------------------------------------------------------------------|
|---------------------------------------------------------------------------|

|-------------------------------------------------------|
|-------------------------------------------------------|
|-------------------------------------------------------|
|--00-15-0-14-0-10-0-14-0-10-0-10h12--3--5--0--3--5--0--|
|-------------------------------------3--5--0--3--5--0--|
|-------------------------------------3--5--0--3--5--0--|

outro
|-------------------------|
|-------------------------|
|-------------------------|
|-------------------------|
|--000------000------000--|
|--000------000------000--|

|-----------------------------------------|
|-----------------------------------------|
|-----------------------------------------|
|--0-00-3-5-0-00-6-5-0-00-3-5-0--7--6--5--| 
|--0-00-3-5-0-00-6-5-0-00-3-5-0--5--6--5--|
|--0-00-3-5-0-00-6-5-0-00-3-5-0-----6--5--|

|-----------------------------------------------|
|-----------------------------------------------|
|-----------------------------------------------|
|--0-00-3-5-0-00-6-5-0-00-3-5-0--7--6--5----0~--| 
|--0-00-3-5-0-00-6-5-0-00-3-5-0--5--6--5----0~--|
|--0-00-3-5-0-00-6-5-0-00-3-5-0-----6--5----0~--|

thats it hope it helps  any probs lets us kno :)
Tap to rate this tab
 
# A B C D E F G H I J K L M N O P Q R S T U V W X Y Z