Song name
# A B C D E F G H I J K L M N O P Q R S T U V W X Y Z

Misc Unsigned Bands - Loutsa Project - Anaphre tab

Tosa xronia, kaneis den aksiothike na grapsei ta akornta ap auto to thespesio asma 
tou mysthriwdh kallitexnh ap thn omorfh Artemida. 
Opote phra thn prwtovoulia na to kanw egw. An mporesw, tha kanw ki alla kommatia.

Paidia, prepei na kourdisete thn kithara sas miso tono katw: 
Eb Ab Db Gb Bb Eb

Olo to kommati einai ena riff. De grafw thn akrivh tamplatoura, 
alla kyriws tis sygxordies kai tis enallages, kai to sxhma twn arpismatwn pou xrhsimopoiountai. 

An exete erwthseis, steilte ena e-mail sto alexpakis@yahoo.com

Have fun =3

paizete auto to sxhma sxedon kath'olo to tragoudi

Intro
|-5-----------------------------|
|-6-----6-------6-------6-------|
|-7---7---7---7---7---7---7---7-|
|-7-7-------7-------7-------7---|
|-5-----------------------------|
|-------------------------------|

    Anaphre       polemou,     o polemos    s'ekane etsi
|-5-------------7-------------5------------3--------------|
|-6-------------8-------------5------------3--------------|
|-7-------------9-------------6------------4--------------|
|-7-------------9-------------7------------5--------------|
|-5-------------7-------------7------------5--------------|
|-----------------------------5------------3--------------|

     H vomva      pou sou riksane
|-5-------------8----------------6-------------|
|-6-------------8----------------6-------------|
|-7-------------9----------------7-------------|
|-7------------10----------------8-------------|
|-5------------10----------------8-------------|
|---------------8----------------6-------------|


Autes loipon einai oi sygxordies tou antipolemikou ymnou twn Loutsa Project.
Apla tis epanalambanete se olo to tragoudi!
Mhn ksehnate ta arpismata!!!

Oi stixoi:

Anaphre polemou,
o polemos s'ekane etsi
H vomva pou sou riksane

Stoixeio ths Loutsas
Ta vradia trigyrnas
Me to karotsaki

Phgaineis sta soou
Katw na syrtheis
San to skoulhki, anaphre
Ax, h anaphria sou

Anaphre, anaphre
Anaphre, trele
O polemos ftaiei gia ola
Anaphre... h vomva se katastrepse

Anaphre, sa diaolos eisai
Anaphre sixamere
Ax thee mou, ti on...
ti on ein' auto?
Anaphre...
Tap to rate this tab
 
# A B C D E F G H I J K L M N O P Q R S T U V W X Y Z