Song name
# A B C D E F G H I J K L M N O P Q R S T U V W X Y Z

Misc Unsigned Bands - Coast Guard - Semper Paratus tab

Arranged by Jim Deeming on JamPlay (link on bottom)

-----------------------------------------------2--------2-------------------|
--------------------------------2---5------5---3---5--3----5-------2---3----|
--2---2---2---2---2---2-2---2--2----2---2------2-----------2-----------1----|
--2---2---2---2---2---------2-2-----2---2------------------2-----------2----|
--0---0---0---0---0---------0-------0---0------0-----------0----0------0----|
----------------------------------------------------------------------------|


---------0-----------------------0-------2----0---2---4---2--0--------------|
-2--0---------2--------------0--------4--------------------------3--2--0----|
-----------------4--2--2-----1--------2-------1---2---4---2--1------------2-|
-----------------------------2--------4--------------------------4--2--0----|
----0---------0-----------------------2-----------------------------------0-|
-----------------4--2--------0-----------------0----------------------------|


------------------------------------------------------2---------------2-----|
---------------------2---5------------------------------------5--3----------|
---2-----2--2-----2-------------------------------5-----2-----2-----2----2--|
2-----2--------2-----2------2------2------2-----------0----------0----------|
------------0------------0-------------0----------2--------0-----------0----|
---0--------------0------------0---------------0----------------------------|


-----------------------------------------------------0----------------------|
-5-----------------------2-----3---------2----0-------------2---------------|
------------------------------------------------------------------4------2--|
----2-----2------2-------2--------0------0--------0------0-----2-----2------|
-0------------0-----------------------2---------------2-----0---------------|
-------0-------------0---------0--------------0-------------------4------2--|


--------------------------------------------------------]
-----------2---5-----2--------0-------------------------]
-------4-----------------2-------2----------------------]
-2-----2-------2-----2--------------2------2------------]
----4------0---------------------0-------------0--------]
------------------0-------2---0---------0---------------]
Tap to rate this tab
 
# A B C D E F G H I J K L M N O P Q R S T U V W X Y Z