Misc Unsigned Bands - The Mooon And The Bear - Xtednolanrandalljrx tab

-------------------------------------------------------------------------------
			     xTEDNOLANRANDALLJRx - The Moon and The Bear
-------------------------------------------------------------------------------
Tabbed by: Steve Washburn
Email: steveiscool182@yahoo.com

Tuning: Drop D

e|---------------------------------------------------------------------------|
B|---------------------------------------------------------------------------|
G|---------------------------------------------------------------------------|
D|--000000000-3p2-2h3-000000000-3p2-2h3-000000000-3/5-5/7-0000000-7-8-7-5-7--|
A|--000000000---------000000000---------000000000---------0000000------------|
E|--000000000---------000000000---------000000000---------0000000------------|

e|---------------------------------------------------------------------------|
B|---------------------------------------------------------------------------|
G|---------------------------------------------------------------------------|
D|--000000000-3p2-2h3-000000000-3p2-2h3-000000000-3/5-5/7-0000000-7-8-7-5-7--|
A|--000000000---------000000000---------000000000---------0000000------------|
E|--000000000---------000000000---------000000000---------0000000------------|


e|-------------------------------------------------------|
B|-------------------------------------------------------|
G|-------------------------------------------------------|
D|5-3-5-3-2-2h3p2-2~-----------222222--00----00----8~----|
A|----------------3~-----------333333--00----00----12~---|
E|-------------------------------------00----00----------|
                                       ..    ..

e|---------------------------------------------------------|
B|---------------------------------------------------------|
G|---------------------------------------------------------|
D|--0000------0000--------0000----------0000---------------|
A|--00008p7-7h800008p7-7h800008/10-10/12000012h13p12\10/12-|
E|--0000------0000--------0000----------0000---------------|
    ....      ....        ....          ....

e|---------------------------------------------------------|
B|---------------------------------------------------------|
G|---------------------------------------------------------|
D|--0000------0000--------0000----------0000---------------|
A|--00008p7-7h800008p7-7h800008/10-10/12000012h13p12\10/15-|
E|--0000------0000--------0000----------0000---------------|
    ....      ....        ....          ....

e|-----------------------------------------------------------------------|
B|-----------------------------------------------------------------------|
G|-----------------------------------------------------------------------|
D|--0-0-0---0-0-0-0---000-0-0-0-0-0-1-1-1---1-1-1-1---111-1-1-1-1-1------|
A|--0-0-0---0-0-0-0---000-0-0-0-0-0-0-0-0---0-0-0-0---000-0-0-0-0-0------|
E|--0-0-0---0-0-0-0---000-0-0-0-0-0-1-1-1---1-1-1-1---111-1-1-1-1-1------|
    . . .   . . . .   ... . . . . . . . .   . . . .   ... . . . . .

e|-----------------------------------------------------------------------|
B|-----------------------------------------------------------------------|
G|-----------------------------------------------------------------------|
D|--0-0-0---0-0-0-0---000-0-0-0-0-0-1-1-1---1-1-1-1---111-1-1-1-1p0-0~---|
A|--0-0-0---0-0-0-0---000-0-0-0-0-0-0-0-0---0-0-0-0---000-0-0-0-0-0-0~---|
E|--0-0-0---0-0-0-0---000-0-0-0-0-0-1-1-1---1-1-1-1---111-1-1-1-1p0-0~---|
    . . .   . . . .   ... . . . . . . . .   . . . .   ... . . . 

e|----------------------------------------------------------------------|
B|----------------------------------------------------------------------|
G|----------------------------------------------------------------------|
D|--0-000-0-0-0-0-0-------------------0-000-0-0-0-0-0-------------------|
A|--0-000-0-0-0-0-0-8---p7---7h8-8b---0-000-0-0-0-0-0-8---p7---7h8-8b---|
E|--0-000-0-0-0-0-0-------------------0-000-0-0-0-0-0-------------------|
    . ... . . . . .                   . ... . . . . .

e|-----------------------------------------------------------------------------|
B|-----------------------------------------------------------------------------|
G|-----------------------------------------------------------------------------|
D|--0-000-0-0-0-0-0----------------------0-000-0-0-0-0-0-----------------------|
A|--0-000-0-0-0-0-0-8---/10---10b--------0-000-0-0-0-0-0-12h13p12\10/12\10\8---|
E|--0-000-0-0-0-0-0----------------------0-000-0-0-0-0-0-----------------------|
    . ... . . . . .                      . ... . . . . .

e|----------------------------------------------------------------------|
B|----------------------------------------------------------------------|
G|----------------------------------------------------------------------|
D|--0-000-0-0-0-0-0-------------------0-000-0-0-0-0-0-------------------|
A|--0-000-0-0-0-0-0-8---p7---7h8-8b---0-000-0-0-0-0-0-8---p7---7h8-8b---|
E|--0-000-0-0-0-0-0-------------------0-000-0-0-0-0-0-------------------|
    . ... . . . . .                   . ... . . . . .

e|------------------------------------------------------------------------------------|
B|------------------------------------------------------------------------------------|
G|------------------------------------------------------------------------------------|
D|--0-000-0-0-0-0-0----------------------0-000-0-0-0-0-0------------------------------|
A|--0-000-0-0-0-0-0-8---/10---10b--------0-000-0-0-0-0-0-12h13p12\10/15h16p15h16p15~--|
E|--0-000-0-0-0-0-0----------------------0-000-0-0-0-0-0------------------------------|
    . ... . . . . .                      . ... . . . . .

e|---------------------------------------------------------------------------|
B|---------------------------------------------------------------------------|
G|---------------------------------------------------------------------------|
D|--0~-----------------------------------------------------------------------|
A|--0~-----------------------------------------------------------------------|
E|--0~-----------------------------------------------------------------------|


************************************

| .   palm mute
| /   slide up
| \   slide down
| h   hammer-on
| p   pull-off
| ~   let ring
| b   Bend

************************************
Tap to rate this tab
 
# A B C D E F G H I J K L M N O P Q R S T U V W X Y Z