Song name
# A B C D E F G H I J K L M N O P Q R S T U V W X Y Z

Misc Unsigned Bands - John Parry Ddall - Deck The Halls tab

-----------------------------------------------------------------------------
			    Deck the Halls
-----------------------------------------------------------------------------
Tabbed by: TheMusicMaster7

Tuning: Standard

e|--10-8-7-------------------------------------------------------------------|
B|---------10-8-10-12-8------------------------------------------------------|
G|---------------------------------------------------------------------------|
D|-----------------------7-9-10-7-9-7-5-4-5----------------------------------|
A|-----------------------7-9-10-7-9-7-5-4-5----------------------------------|
E|-----------------------5-7--8-5-7-5-3-2-3----------------------------------|

  Rock n' Roll X-Mas like.......
Tap to rate this tab
 
# A B C D E F G H I J K L M N O P Q R S T U V W X Y Z