Song name
# A B C D E F G H I J K L M N O P Q R S T U V W X Y Z

Misc Unsigned Bands - Bjz - Bjz tab

guitar two
e-------------------------------------------------------------------|
B-------------------------------------------------------------------|
G---9-9-9-9-9-9-9-9-9-9-9-9-9-9-9-7-5-5-5-5-5-5-5-5-7-7-7-7-7-7-7-7-|
D---9-9-9-9-9-9-9-9-9-9-9-9-9-9-9-7-5-5-5-5-5-5-5-5-7-7-7-7-7-7-7-7-|
A---7-7-7-7-7-7-7-7-7-7-7-7-7-7-7-5-3-3-3-3-3-3-3-3-5-5-5-5-5-5-5-5-|
E-------------------------------------------------------------------|

(until end of intro)

guitar one
e-15-12-15-12-15-12-15-12-17p15p12--14p12p10-14p12p10-14p12p10---|
B----------------------------------------------------------------|
G----------------------------------------------------------------|
D----------------------------------------------------------------|
A ---------------------------------------------------------------|
E----------------------------------------------------------------|

e-14p12p10-14p12p10-14p12p10-14p12p10-14p12p10------------|
B---------------------------------------------------------|
G---------------------------------------------------------|     x2
D---------------------------------------------------------|
A---------------------------------------------------------|
E---------------------------------------------------------|

e-15p14p12-15p14p12-14p12p10-12p10p8-14p12p10-14p12p10-15p14p12-|
B---------------------------------------------------------------|
G---------------------------------------------------------------|
D---------------------------------------------------------------|
A---------------------------------------------------------------|
E---------------------------------------------------------------|

e-15p14p12-14p12p10-14p12p10-12p10p8-12p10p8-14p12p10-14p12p10-|
B--------------------------------------------------------------|
G--------------------------------------------------------------|
D--------------------------------------------------------------|
A--------------------------------------------------------------|
E--------------------------------------------------------------|

e15p14p12-15p14p12-14p12p10-12p10p8-10p8p7-8p7p5-7p5p3-2p3p2-0-|
B------------------------------------------------------------0-|
G------------------------------------------------------------0-|
D------------------------------------------------------------2-|
A------------------------------------------------------------2-|
E------------------------------------------------------------0-|

(end of intro)
Tap to rate this tab
 
# A B C D E F G H I J K L M N O P Q R S T U V W X Y Z