Song name
# A B C D E F G H I J K L M N O P Q R S T U V W X Y Z

Misc Unsigned Bands - Skys The Limit - Nostalgia tab

NOSTALGIA by SKY'S THE LIMIT.
Acoustic version for one guitar. Slight variations just about everywhere, 
but the point isn't to duplicate exactly how it's played. Just the pattern. 
So apart from the rythm, the number of times you play each notes is 
pretty much up to you. Figure the rythm out for yourself.
:
#intro
e-----------------7p5-------------------------7---|
B-----------7p5---------7p5-------------7p5---5---|
G-----7p6---------------------7p6-----------6-----|
D---------0-----0-----0-----0-------0-------------|
A-------------------------------------------------|
D---0-----------------------------0---0-----------|
#intro cont.
e------------------7-----7---------------------7---|
B-----5-----5--------5-----5-------------7p5---5---|
G-------6-6---6-6------6-----6-6h7-7p6---------6---|
D--------------------------------------7-----7-----|
A---0----------------------------------------------|
D--------------------------------------------------|
#intro cont.
e-----------------7p5-----------------------------7---|
B-----------7p5---------7p5-----------------7p5---5---|
G-----7p6---------------------6h7p6---7p6-6-----6-----|
D---------0-----0-----0-----0-------------------------|
A-----------------------------------------------------|
D---0-------------------------------0-----------------|
#intro cont.
e-----------------7p5---------------------7-----7---|
B-----5-----7p5---------7p5---------5-------5---5---|
G-------6-------6-----6-6---6-7p6---7p6-6-----6-6---|
D---7-----------------------------------7-----------|
A---------0-----------------------0-----------------|
D---------------------------------------------------|
#intro cont.
e-----------------7p5-----------------------------7---|
B-----------7p5---------7p5---5-------------7p5---5---|
G-----7p6-------6-------------6h7p6---7p6-------6-6---|
D---------0-----0-----0-----0-------------0-----0-----|
A-----------------------------------------------------|
D---0-------------------------------0-----------------|
#intro cont.
e-----------------7-----7-----7-----7-----7-----7---|
B-----------7p5-----5-----5-----5-----5-----5---5---|
G-----7p6-------------6-----6-----6-----6-----6-6---|
D---------7-----7-------------------------------7---|
A---0-----------------------------------------------|
D---------------------------------------------------|
:
#intro end (X2)
e-------------0-5-----------------0-------------0-5---------------0-5-----|
B---------9-------9-----------9---10--------9-------9-----------------9---|
G-------7---7-------7-------7---7-7-------7---7-------7-------7-----------|
D-----7-------------------7-------------7-------------------7---7---------|
A-------------------------------------------------------------------------|
D---0-------------------0-------------0-------------------0---------------|
:
#verse1 (X8)
e-----------0-0-0---|
B-----------0-0-0---|
G---7/9-9-9-9-9-9---|
D---------9-9-9-9---|
A---5/7-7-7-7-7-7---|
D---0---0-7-7-7-7---|
:
#chorus *=lotsa times					   |end with |save for later
e---0*--0*----------------0*----------------0*-------------|---------|-------------|
B---0---0-----------------0-----------------0----*---------|---------|-------------|
G---11--6---14-14-9-9-7/6-6---14-14-9-9-7/6-6---9--9/11-11-|-9-9-9-9-|-13-13-13-13-|
D---11--6-----------------6-----------------6-0------------|---------|-------------|
A---9---4-0-12-12-7-7-5/4-4-0-12-12-7-7-5/4-4-0-7--7/9--9--|-7-7-7-7-|-11-11-11-11-|
D---9---4-0-0--0--0-0-0---4-0-0--0--0-0-0---4-0-0--0----0--|-0-0-0-0-|-0--0--0--0--|
:
repeat verse, then chorus with the last section instead of the \\\"end with\\\"
:
#bridge1 (X4) last time, end with brackets.
e------------------------------------------0--------|
B------------------------------------------0--------|
G---14-11-9-6-7-6---14-11-9-6-7-6---11-9-9-11-(9)---|
D----------------------------------------9-11-(0)---|
A---12-9--7-4-5-4---12-9--7-4-5-4---9--7-7-9--(0)---|
D---0--0--0-0-0-0---0--0--0-0-0-0---0--0-7-9--(0)---|
:
#bridge2 palmmuted X4, then open X2
e----------------------------------------------------------------------------------|
B----------------------------------------------------------------------------------|
G----------------------------------------------------------------------------------|
D---11-12-11-12-14-12-11-12-11-12-11-12-14-12-11-0-14-14-14-14-14-12-11-11-11-11---|
A---0--0--0--0--0--0--0--0--0--0--0--0--0--0--0--0-12-12-12-12-12-12-12-12-12-12---|
D--------------------------------------------------12-12-12-12-12-12-12-12-12-12---|
:
#bridge3 *=lotsa times
e---0*---0*--0*---0*--0*---0*---------------|
B---0----0---0----0---0----0-----*----------|
G---11---6---11---6---11---6---14---9-7-6---|
D---11---6---11---6---11---6---0------------|
A---9----4---9----4---9----4---12---7-5-4---|
D---9----4---9----4---9----4---0----0-0-0---|
:
#bridge4 palmmuted
e----------------------------------------------------------------------------------|
B----------------------------------------------------------------------------------|
G----------------------------------------------------------------------------------|
D---11-12-11-12-14-12-11-12-11-12-11-12-14-12-11-0-14-14-14-14-14-12-11-11-11-11---|
A---0--0--0--0--0--0--0--0--0--0--0--0--0--0--0--0-12-12-12-12-12-12-12-12-12-12---|
D---0--0--0--0--0--0--0--0--0--0--0--0--0--0--0--0-0--0--0--0--0--0--0--0--0--0----|
:
#bridge4 cont. palmmuted *=lotsa times
e--------------------|
B----*----*----------|
G---6---11---0-0-0---|
D---6---11---0-0-0---|
A---4---9----0-0-0---| 
D---4---9----0-0-0---|
:
play bridge2 open X4, then endchord
:
#endchord
e---0---|
B---2---|
G---2---|
D---2---|
A---0---|
D-------|
:
...and that's it. 
Thanks to Johan Ollas for getting the tabbing started.
Tabbed by Matte Kettunen 26.08.2004. 
Tap to rate this tab
 
# A B C D E F G H I J K L M N O P Q R S T U V W X Y Z