Misc Unsigned Bands - Ted Bond - Craigs Brother tab

CRAIG'S BROTHER by TED BOND (2003)
Acoustic neatness! =D
:
#verseA Play these chords.
e-----3-----5-----8-----|
B-----3-----5-----8-----|
G-----4-----5-----9-----| Exactly how? Try for yourself!
D-----5-----7-----10----| These are played at the bridge
A-----5-----7-----10----| and outro too.
E-----3-----5-----8-----|
:
#verseB
e------------------------|
B------------------------|
G-----7-----9-----12-----|
D-----5-----7-----10-----|
A------------------------|
E------------------------|
:
#bridgeB
e-----------------------|
B-----------------------|
G-----4-----6-----7-----|
D-----2-----4-----5-----|
A-----------------------|
E-----------------------|
:
#bridge1C
e-------5-7-8------------------3-5-7---------------|
B-----5-------5---7-7-8-10---3-------3---0-0-0-0---|
G---5-------------7-7-7-7--0-------------4-4-2-0---|
D--------------------------------------------------|
A--------------------------------------------------|
E--------------------------------------------------|
:
#bridge2C
e-------5-7-8----------------------|
B-----5-------5---7-7-8-10-7---8---|
G---5-------------7-7-7-7--7---7---|
D--------------------------4---5---|
A----------------------------------|
E----------------------------------|
:
#chorusA
e-----3---2---0-----3-----5-----|
B-----3---2---0-----5-----7-----|
G-----4---2---0-----5-----7-----|
D-----5---4---2-----5-----7-----|
A-----5---4---2-----3-----5-----|
E-----3---2---0-----------------|
:
#outroA
e-----5-----3-----5-----|
B-----5-----3-----7-----|
G-----5-----4-----7-----|
D-----7-----5-----7-----|
A-----7-----5-----5-----|
E-----5-----3-----------|
#outroB (small variations on this)
e---------------------------------------------------------------------|
B---------------------------------------------------------------------|
G---------------------------------------------------5---4---2---0-----|
D-----0-0---0---0---0---0-0-0---0---0---------------------------------|
A---------2-------2-------------------3-3-2-0-----2-3---2---0---------|
E-----------------------------------------------3---------------3-----|

Tabbed by Kaysow on July 27, 2003
Tap to rate this tab
 
# A B C D E F G H I J K L M N O P Q R S T U V W X Y Z