Misc Unsigned Bands - Freddiew - Noob Slayer tab

Noob Slayer - freddiew
http://www.youtube.com/watch?v=mTS16klgqMU

Tabbed by: Z13J
Email: Z13J@ymail.com

Standard Tuning

Version 1.0 - Added guitar part from 0:50 - 1:11

This is for the part where the guitar track is visible.

0:50 - 0:57

e|---------------------------------8-------------------------------------|
B|8-10-10-10-10-8-10-10-10-10-8-10--8-10-10-10-10-8-10-10-10-10-8-10-----|
G|------------------------------------------------------------------9----|
D|-----------------------------------------------------------------------| x2
A|-----------------------------------------------------------------------|
E|-----------------------------------------------------------------------|

Not sure about this part, comment on it below.

0:58 - 1:02

e|--------------------------------11-------------------------------------|
B|11-13-13-13-13-11-13-13-13-11-13--11-13-13-13-13-11-13-13-13-13-11-13--|
G|---------------------------------------------------------------------12|
D|-----------------------------------------------------------------------|
A|-----------------------------------------------------------------------|
E|-----------------------------------------------------------------------|

1:03 - 1:11

e|-------------------------------------------------------------------|
B|--12h13----12h13----12h13h15p12/17b--------------------------------|
G|13------13-------13------------------------------------------------|
D|-------------------------------------------------------------------|
A|-------------------------------------------------------------------|
E|-------------------------------------------------------------------|

Slide down the neck at the end and you're done!
Comment please!

************************************

| /   slide up
| \   slide down
| h   hammer-on
| p   pull-off
| ~   vibrato
| +   harmonic
| x   Mute note
| b   Bend
| pb  Pre-bend
| br  Bend release
| pbr Pre-bend release
| brb Bend release bend

************************************
Tap to rate this tab
 
# A B C D E F G H I J K L M N O P Q R S T U V W X Y Z