Misc Unsigned Bands - The Crosstown Rivalry - Falling For You Acoustic tab

-------------------------------------------------------------------------------
			     Falling for You - The Crosstown Rivilary 
-------------------------------------------------------------------------------
Tabbed by: King_CJ
Email: thadudechester@gmail.com


This is a novice song to play, but to sing with it you need some basic rythem.

Tuning: Drop D 

intro:  rythem
e|------------------|--------------------------------------------------------|
B|--33--77--77--55--|--------------------------------------------------------|
G|--44--77--77--77--|--------------------------------------------------------|
d|--xx--xx--xx--00--|-x2-----------------------------------------------------|
A|--11--55--55--xx--|--------------------------------------------------------|
D|----------55--77--|--------------------------------------------------------|

intro: lead
e|------0--------0-----------------------------------------------------------|
B|----3--3-3---3--3-3--------------------------------------------------------|
G|--22-2--2---2-2--2---------------------------------------------------------|
d|---------------------------------------------------------------------------|
A|---------------------------------------------------------------------------|
D|---------------------------------------------------------------------------|

verse:
e|------------------|-------5------------------------------------------------|
B|--33--77--77--55--|-------5------------------------------------------------|
G|--44--77--77--77--|-------7------------------------------------------------|
d|--xx--xx--xx--00--|-x4----0------------------------------------------------|
A|--11--55--55--xx--|-------0------------------------------------------------|
D|----------55--77--|-------0------------------------------------------------|

pre chorus
e|--------------0------------------------------------------------------------|
B|------5-------3------------------------------------------------------------|
G|--7---7---7---2------------------------------------------------------------|
d|--5---0---0---0------------------------------------------------------------|
A|--5---x---x---0---x2-------------------------------------------------------|
D|--5---7---9---0------------------------------------------------------------|

chorus:
e|--------------0------------------------------------------------------------|
B|--------------3------------------------------------------------------------|
G|--7---6---7---2---7---6---7---9---11---------------------------------------|
d|--5---0---0---0---5---0---0---0---0----------------------------------------|
A|--5---x---x---0---5---x---x---x---x----------------------------------------|
D|--5---7---9---0---5---7---9---11--12---------------------------------------|


intro
verse
pre chorus
chorus


piano part:
e|-------------------------------------------|-------------------------------|
B|------7---7--------7---|---------10-8787---|-------------------------------|
G|--------7---7--7/9-----|--x4------------7--|-------------------------------|
d|-------------------------------------------|-------------------------------|
A|-------------------------------------------|-------------------------------|
D|-------------------------------------------|-------------------------------|

ending:
e|---0-----------------|----------------0------------------------------------|
B|---3-----------------|----------------3------------------------------------|
G|---2---7---7---6-----|----------------2------------------------------------|
d|---0---5---0---0-----|--x8----end-on--0------------------------------------|
A|---0---5---x---x-----|----------------0------------------------------------|
D|---0---5---9---7-----|----------------0------------------------------------|



************************************

| /   slide up
| \   slide down
| h   hammer-on
| p   pull-off
| ~   vibrato
| +   harmonic
| x   Mute note


************************************
Tap to rate this tab
 
# A B C D E F G H I J K L M N O P Q R S T U V W X Y Z