Song name
# A B C D E F G H I J K L M N O P Q R S T U V W X Y Z

Misc Unsigned Bands - Brian Dubois - Song 1 tab

Tabbed By: Brian Dubois
Email: BrianConnorDubois@gmail.com
Tuning: Standard
e|-------0-------0-------0-----2h3p2-0-| |
B|-------------------------------------|     |
G|-----2-------1-------------2---------|       |
D|---2-------2---------0---0-----------|          |
A|-0-------2---------2-----------------|           |
E|-----------------3-------------------|          |
                                                 |    x4
e|-------0-------0-3---3-5-2---2-3-0---|          |
B|-------------------------3---3-------|           |
G|-----2-------1-------------2---------|          |
D|---2-------2-------------0-----------|        |
A|-0-------2---------2-----------------|     |
E|-----------------3-------------------| |
 
e|-------0-------0-------0-----2h3p2-0-|
B|-------------------------------------|
G|-----2-------1-------------2---------|
D|---2-------2---------0---0-----------|
A|-0-------2---------2-----------------|
E|-----------------3-------------------|

e|-------0-------0-3---3-5-2---2-3-5--0|
B|-------------------------3---3-------|
G|-----2-------1-------------2---------|
D|---2-------2-------------0-----------|
A|-0-------2---------2-----------------|
E|-----------------3-------------------|

e|-0-0-0-000-0-0-003-3-3-331/2-2-2200--| |
B|-1-1-1-110-0-0-000-0-0-002/3-3-3300--|    |
G|-2-2-2-221-1-1-110-0-0-001/2-2-2200--|   |      x8
D|-2-2-2-222-2-2-220-0-0-000-0-0-0000--|   |
A|-0-0-0-002-2-2-222-2-2-22------------|    |
E|-0-0-0-000-0-0-003-3-3-33------------| |

e|-0-0-0-000-0-0-003-3-3-331/2-2-2200===========|
B|-1-1-1-110-0-0-000-0-0-002/3-3-3300===========|
G|-2-2-2-221-1-1-110-0-0-001/2-2-2200===========|
D|-2-2-2-222-2-2-220-0-0-000-0-0-0000===========|
A|-0-0-0-002-2-2-222-2-2-22---------------------|
E|-0-0-0-000-0-0-003-3-3-33---------------------|

e|-------0-------0-------0-----2h3p2-0-| |
B|-------------------------------------|     |
G|-----2-------1-------------2---------|       |
D|---2-------2---------0---0-----------|          |
A|-0-------2---------2-----------------|           |
E|-----------------3-------------------|          |
                                                 |    x4
e|-------0-------0-3---3-5-2---2-3-0---|          |
B|-------------------------3---3-------|           |
G|-----2-------1-------------2---------|          |
D|---2-------2-------------0-----------|        |
A|-0-------2---------2-----------------|     |
E|-----------------3-------------------| |
 
e|-------0-------0-------0-----2h3p2-0-|
B|-------------------------------------|
G|-----2-------1-------------2---------|
D|---2-------2---------0---0-----------|
A|-0-------2---------2-----------------|
E|-----------------3-------------------|

e|-------0-------0-3---3-5-2---2-3-5--0|
B|-------------------------3---3-------|
G|-----2-------1-------------2---------|
D|---2-------2-------------0-----------|
A|-0-------2---------2-----------------|
E|-----------------3-------------------|

e|-0-0-0-000-0-0-003-3-3-331/2-2-2200--| |
B|-1-1-1-110-0-0-000-0-0-002/3-3-3300--|    |
G|-2-2-2-221-1-1-110-0-0-001/2-2-2200--|   |      x8
D|-2-2-2-222-2-2-220-0-0-000-0-0-0000--|   |
A|-0-0-0-002-2-2-222-2-2-22------------|    |
E|-0-0-0-000-0-0-003-3-3-33------------| |

e|-0-0-0-000-0-0-003-3-3-331/2-2-2200===========|
B|-1-1-1-110-0-0-000-0-0-002/3-3-3300===========|
G|-2-2-2-221-1-1-110-0-0-001/2-2-2200===========|
D|-2-2-2-222-2-2-220-0-0-000-0-0-0000===========|
A|-0-0-0-002-2-2-222-2-2-22---------------------|
E|-0-0-0-000-0-0-003-3-3-33---------------------|

| /  slide up
| h  hammer-on
| p  pull-off
| =  hold out chord
Tap to rate this tab
 
# A B C D E F G H I J K L M N O P Q R S T U V W X Y Z