Misc Unsigned Bands - Egyptian Hip Hop - Wild Human Child tab

intro and verse part 1 (fairly simple, those x's are palm mutes)

e-xxxxxxxx-----xx-xx------------------------------|
B-xxxxxxxx-----xx-xx------------------------------|
G-xxxxxxxx-----xx-xx------------------------------|
D-xxxxxxxx-----xx-xx------------------------------|
A-xxxxxxxx-----xx-xx------------------------------|
E-xxxxxxxx-----xx-xx------------------------------|

verse part 2
e-----------------------------------------------|
B-2-0---0---------------------------------------|
G-----2---2-1-2-1---1-2-4-2-1---1---------------|
D-----------------4-----------4-----------------|
A-----------------------------------------------|
E-----------------------------------------------|

part 3
e-----------------------------------------------|
B-2--4-7--5--7-9/2--4-7--5--7-5-4-2-------------|
G-----------------------------------------------|
D-----------------------------------------------|
A-----------------------------------------------|
E-----------------------------------------------|

small break part
e-----------------------------------------------|
B-----------------------------------------------|
G-16-16-16-16-16-16-16-16-----------------------|
D-----------------------------------------------|
A-----------------------------------------------|
E-----------------------------------------------|

part 4
e-------------------------------------------------|
B-------------------------------------------------|
G-16-16-16--16--16--16--16--16--16-16161616-14-11-|
D-------------------------------------------------|
A-------------------------------------------------|
E-------------------------------------------------|

e-----------------------------------------------|
B-----------------------------------------------|
G-11-11-11-9-14-11------------------------------|
D-----------------------------------------------|
A-----------------------------------------------|
E-----------------------------------------------|

end this part on

G-16-16-16
then there is the bass and keyboard interplay

guitar break
e-----------------------------------------5-3-2-|
B-2--2-3-5-3-2--2-3-7-5-3--2-3-5-3-2--2-3-------|
G--4----------4-----------4---------4-----------|
D-----------------------------------------------|
A-----------------------------------------------|
E-----------------------------------------------|
only hit the first two the first time you play this part

towards the end of this part another guitar comes in with
G-/16--/16--/16-16-16

then play part 4 again, but with added bends (listen to the song, they're fairly easy to hear)

end on
G-16-16-16

A very easy song, listen to it for help with timing, repetition and the slight variations.
Also, any corrections would be appreciated.

Tabbed by Gilles Casey
Tap to rate this tab
 
# A B C D E F G H I J K L M N O P Q R S T U V W X Y Z