Misc Unsigned Bands - A Breath Before Surfacing - Summoning The Lord Of The Pit tab

---------------------------------------------------------------------------------------
          Summoning the lord of the pit - A Breath before surfacing
---------------------------------------------------------------------------------------
Tabbed by:casemeister
Email:caseymccall21@gmail.com

Tuning:Drop D

h - hammer on
. - Palm mute

e|---------------------------------------------------------------------------|
B|---------------------------------------------------------------------------|
G|---------------------------------------------------------------------------|
D|---------55----------44--------------------55----------44------------------| x4
A|---------77----------66------2h5-----------77----------66----5h8-4h7-2h5---|
E|000-000-----000-000-----0000----4-000-000-----000-000-----00------------4--|
  ... ...     ... ...     ....      ... ...     ... ...     .. . . . .   

e|------------------------------------------------------|   
B|------------------------------------------------------|                  
G|------------------------------------------------------|                  
D|------5-------4-----------------5-------4-------------|x2                
A|------7-------6------2h5--------7-------6----5h8-4h7--|                  
E|00-00---00-00---0000----4-00-00---00-00---00----------|                 
  .. ..   .. ..   ....      .. ..   .. ..   .. . . . .
  
   Then end with  |--------|
                  |--------|
                  |--------| 
                  |--------|
                  |0-------|
                  |0-------|


Well there you have it thats the entire song brought to you by casey. If there are 
any mistakes just email me.
Tap to rate this tab
 
# A B C D E F G H I J K L M N O P Q R S T U V W X Y Z