Misc Unsigned Bands - Andrew Read - Never Long chords

SONG: Never Long
PERFORMED BY: Andrew Read
WRITTEN BY: Chris Reynolds

(TO HEAR THIS SONG, PLEASE VISIT THIS URL: http://www.ilike.com/artist/Efficiency )

This is my first tab so i'm sorry if it doesn't make much sense.

------------------------------------------------------------------------
Standard Tuning

Intro/Verse/Chorus
e|----0----0----0----0----0----0----|
b|----0----0----0----0----0----0----|
g|----9----9----6----4----2----4----| 
d|----9----9----6----4----2----4----|
a|----7----6----4----2----0----2----|
E|----0----0----0----0----0----0----|

Bridge
|----0----2----0----2----0----2----0----|
|----0----2----0----2----0----2----0----|
|----6----3----6----3----6----3----2----|
|----6----4----6----4----6----4----2----|
|----4----4----4----4----4----4----0----|
|----0----2----0----2----0----2----0----|
 a little voice can start some magic...


LYRICS:
VERSE:
I saw you sitting in your fame Standing there without the slightest shame
I wondered if I'd ever know
Who in the world would ever let you go
I knew some things hadn't gone quite right
That sometimes lifes just gonna bite
But is it ok just to let it go
in the is it true you'll always grow

CHORUS:
Never long I'd go without you never long is stay away
Never long had been out story never long is what you say
(end of chorus)

VERSE 2:
This time again you lift your chin
You turn your back and my heart rates flat
right then I find I've lost my mind
And you remind I was so so blind
Never never long without you never never long i'd go
Never never I'd forget you never never let you go
A little voice can start some magic
A little voice can fade away!
Maybe if I but learned some logic
Maybe you'd keep me here to stay

Chorus


----------------------------------------------------------------------

And that it is! I hope it works! good luck with it! Email me at 
andrewthedrummerboy@gmail.com if you have any questions.
Tap to rate this tab
 
# A B C D E F G H I J K L M N O P Q R S T U V W X Y Z