Misc Unsigned Bands - Mandown - A Hazy Waste tab

This band is local to my town and i'd consider them in my top three favorite bands ever,
I hope this tab helps out. Adpiccini@crimson.ua.edu


Intro/verse:
e-----------------------------5--------------------------0--|
b----------------------------x---------------------------0--|
g---2xx-7/9-9-9-9999-7xx7x777-----2xx-7/9-9-9-9999x-7---7---|
d---2xx-5/7-7-7-7777-5xx5x555-----2xx-5/7-7-7-7777x-5--5----|
a---0xx-0/0-0-0-0000-0xx0x000-----0xx-0/0-0-0-0000x-0-0-----|
E-----------------------------------------------------------|

Chorus:
e--------------------------------------       --------------------|
b--------------------------------------       --end on:-----------|
g-------------------------------2-4-2-0       --------------------|
d-----3-3------7-7------5-5------------  3x   --9999/5555---------|
a----3-3-3-3--7-7-7-7--5-5-5-5-5-------       --9999/5555---------|
E---1-----1--5-----5--3-----3-3--------       --7777/3333---------|

Bridge/Jam:
e---------------------------------------------|
b---------------------------------------------|
g---------------------------------------------|
d--7/5-77/5-77/55----10/9-1010/9-1010/99------|
a--7/5-77/5-77/55(x4)10/9-1010/9-1010/99(x2)--|
E--5/3-55/3-55/33----8 /7-8 8 /7-8 8 /77------|

e--------------------------------------------------|
b--------------------------------------------------|
g--------------------------------------------------|
d--7/5-77/5-77/55----10/9-1010/9-1010/99-----------|
a--7/5-77/5-77/55(x2)10/9-1010/9-1010/99(x2)-------|
E--5/3-55/3-55/33----8 /7-8 8 /7-8 8 /77-----------|

e---------------------------------------------------|
b---------------------------------------------------|
g---------------------------------------------------|
d--12/10-1212/10-1212/1010--1414141414-151515151515-|
a--12/10-1212/10-1212/1010--1414141414-151515151515-|
E--10/8 -1010/8 -1010/8 8 --1212121212-131313131313-|

outro:
e--------------------------------|
b--------------------------------|
g--14(x8)-17(x8)-16(x16)---------|
d--------------------------------|
a--------------------------------|
E--------------------------------|
Tap to rate this tab
 
# A B C D E F G H I J K L M N O P Q R S T U V W X Y Z