Misc Unsigned Bands - Abril - Torno A Comencar Acustic tab

Abril - Torno a Comencar (Acustic)
===================================

Intro
E|-0-0-0-0--0--0--0--0--0--0--0-|
B|--0-0-0-0-0--0--0--0--0--0--1-|
G|----------1--4--6--4--6--2--2-|
D|----------2--4--6--4--6--2--2-|
A|----------2--2--4--2--4--0--0-|
E|----------0-------------------|


Estrofa x2
E|-0--0--0--0-|
B|-0--0--0--0-|
G|-1--2--6--4-|
D|-2--2--6--4-|
A|-2--0--4--2-|
E|-0----------|


Pre-chorus
E|-0--0-|
B|-0--0-|
G|-5--7-|
D|-5--7-|
A|-3--5-|
E|------|


Chorus
E|-0--0-      |-0--0--0--0--0--0-|
B|-0--0-      |-0--0--0--0--0--0-|
G|-1--2-      |-1--4--5--6--2--4-|
D|-2--2-  x2  |-2--4--5--6--2--4-|
A|-2--0-      |-2--2--3--4--0--2-|
E|-0----      |-0----------------|


Estrofa x2
Pre-chorus
Chorus


Pont
E|------------------    |-0--0--0--|
B|------------------    |-0--0--0--|
G|-6--9--11--13--11-    |-6--2--4--|
D|-6--9--11--11--11-    |-6--2--4--|  x2
A|-4--7--9---9---9--    |-4--0--2--|
E|------------------    |----------|

E|-0--0--0--0-|
B|-0--0--0--0-|
G|-6--2--4--1-|
D|-6--2--4--2-|
A|-4--0--2--2-|
E|----------0-|


Chorus x2
Intro x2


http://www.myspace.com/abrilbarcelona
Tap to rate this tab
 
# A B C D E F G H I J K L M N O P Q R S T U V W X Y Z