Misc Unsigned Bands - Alex Brown - Wasteful tab

-------------------------------------------------------------------------------
			     Wasteful - Alex Brown                       
-------------------------------------------------------------------------------
Tabbed by: Alex Brown
Email:Traceking9@Hotmail.com

This is my own song, everything is original.
The tuning was takin from Wasteland (Acoustic) because I like how it sounds and 
how you can play with it. For anyone who happens to come across this tab,enjoy, 
it's mostly for me to remember though since I'll forget how to play it soon.

Tuning:C#, Ab, C#, F#, C#, E
        Intro/Verse 1                                 Repeat x4
|--------2-----------2-----------2-----------2----------------------------|
|------0---0-------0---0-------0---0-------0---0--------------------------|
|----3-------3---3-------3---3-------3---3-------3------------------------|
|--0----------------------------------------------------------------------|
|--------------3-----------0-----------1----------------------------------|
|-------------------------------------------------------------------------|
        Verse 2
|-------------------------------------------------------------------------|
|-------------------------------------------------------------------------|
|-------------------------------------------------------------------------|
|----101010101010----------3-3-3-3-3-3--------7-7-7-7-7-7-----------------|
|----8-8-8-8-8-8-----------1-1-1-1-1-1--------5-5-5-5-5-5-----------------|
|----8-8-8-8-8-8-----------1-1-1-1-1-1--------5-5-5-5-5-5-----------------|

|-------------------------------------------------------------------------|
|-------------------------------------------------------------------------|
|-------------------------------------------------------------------------|
|---12-12-12-12-12-12-----------------------------------------------------|
|---10-10-10-10-10-10-----------------------------------------------------|
|---10-10-10-10-10-10-----------------------------------------------------|
       Chorus                                             Reapeat x2
|---2-2-2-2-2-2-2-2-2-2-2-2-2-2-2-2-2-2-2-2-2-2-2-2-2-2-2-2--\------------|
|---0-0-0-0-0-0-0-0-0-0-0-0-0-0-0-0-0-0-0-0-0-0-0-0-0-0-0-0---\-----------|
|---0-0-0-0-0-0-0-0-0-0-0-0-0-0-0-0-0-0-0-0-0-0-0-0-0-0-0-0---->-30 times-|
|---2-2-2-2-2-2-2-2-2-2-2-2-2-2-2-2-2-2-2-2-2-2-2-2-2-2-2-2---/-----------|
|---3-3-3-3-3-3-3-3-3-3-3-3-3-3-3-3-3-3-3-3-3-3-3-3-3-3-3-3--/------------|
|-------------------------------------------------------------------------|
Strumming Pattern  D - D U D U

 Verse 1 x4
 Verse 2 x8
 Chorus X2





       Outro
|--1-1-1-1-1-1-1-1-----------------------------------------------5-7------|
|--0-0-0-0-0-0-0-0-----------------------------------0-1/4-4-5-7-----7-5-4|
|--2-2-2-2-2-2-2-2----------0h2p0-----------------2-----------------------|
|--0-0-0-0-0-0-0-0--------0-------3-2-----------4-------------------------|
|-------------------------------------3-0-3/5-5---------------------------|
|-------------------------------------------------------------------------|

|-------------------------------------------------------------------------|
|-------------------------------------------------------------------------|
|-----------0-2-0---------------------------------------------------------|
|-----0-2-3-------3-2h3p2---0---------------------------------------------|
|-------------------------3-----------------------------------------------|
|---0---------------------------------------------------------------------|



************************************

| /   slide up
| \   slide down
| h   hammer-on
| p   pull-off
| ~   vibrato
| +   harmonic
| x   Mute note
| b   Bend
| pb  Pre-bend
| br  Bend release
| pbr Pre-bend release
| brb Bend release bend

************************************
Tap to rate this tab
 
# A B C D E F G H I J K L M N O P Q R S T U V W X Y Z