Misc Unsigned Bands - Gabrielle Aplin - Reverse Youtube tab

---------------------------------------------------------------------------------------
                        <3~REVERSE(youtube version)~Gabrielle Aplin~<3
---------------------------------------------------------------------------------------
Hi so I tabbed this watching Gabrielle play this on youtube I think its all right but 
suggestions please let me know hope you enjoy :) - Emma xD xx
---------------------------------------------------------------------------------------

Tuning: Standard EADGBe
Capo  - 2/3 (it's really played on 3 but it is easier to sing on 2)
Chords
G- 330023
F  332002
Em  330220
Csus  33023x

INTRO/VERSE

e|-----------------------------------------------------------------|
B|-----------------------------------------------------------------|
G|---0---0---0---0---2---2---2---2---0---0---0---0---0---0---0---0-|
D|-----------------------------------------------------------------|
A|-------------------------------------------------3---3---3---3---|
E|-3---3---3---3---2---2---2---2---0---0---0---0-------------------|
       G               F                Em              Csus
e|-----------------------------------|
B|-----------------------------------|
G|---2---2---2---2---0---0---0---0---|     X4
D|-----------------------------------|
A|-----------------------------------|
E|-2---2---2---2---3---3---3---3-----|
        F               G

PRE CHORUS

e|----------------------------------------------------|
B|----------------------------------------------------|
G|---0---0---0---0---2---2---2---2---0---0---0---0----|      X2
D|----------------------------------------------------|
A|-3---3---3---3--------------------------------------|
E|-----------------2---2---2---2---0---0---0---0------|
       Csus                 F               Em
CHORUS

e|---------------------------------------------------|
B|---------------------------------------------------|
G|---0---0---0---0---2---2---2---2---0---0---0---0---|
D|---------------------------------------------------|
A|-3---3---3---3-------------------------------------|
E|-----------------2---2---2---2---0---0---0---0-----|
       Csus              F                 Em
e|---------------------------------------------------|
B|---------------------------------------------------|
G|---0---0---0---0---2---2---2---2---0---0---0---0---|
D|---------------------------------------------------|
A|-3---3---3---3-------------------------------------|
E|-----------------2---2---2---2---3---3---3---3-----|
      Csus                 F              G
e|---------------------------------------------------|
B|---------------------------------------------------|
G|---0---0---0---0---2---2---2---2---0---0---0---0---|    X2
D|---------------------------------------------------|
A|-3---3---3---3-------------------------------------|
E|-----------------2---2---2---2---0---0---0---0-----|
      Csus               F               Em
e|---------------------------------------------------|
B|---------------------------------------------------|
G|---0---0---0---0---2---2---2---2---0---0---0---0---|
D|---------------------------------------------------|
A|-3---3---3---3-------------------------------------|
E|-----------------2---2---2---2---3---3---3---3-----|
        Csus             F               G

VERSE

e|-----------------------------------------------------------------|
B|-----------------------------------------------------------------|
G|---0---0---0---0---2---2---2---2---0---0---0---0---0---0---0---0-|
D|-----------------------------------------------------------------|
A|-------------------------------------------------3---3---3---3---|
E|-3---3---3---3---2---2---2---2---0---0---0---0-------------------|
       G               F                Em              Csus
e|-----------------------------------|
B|-----------------------------------|
G|---2---2---2---2---0---0---0---0---|     X3
D|-----------------------------------|
A|-----------------------------------|
E|-2---2---2---2---3---3---3---3-----|
        F               G

PRE CHORUS

e|----------------------------------------------------|
B|----------------------------------------------------|
G|---0---0---0---0---2---2---2---2---0---0---0---0----|
D|----------------------------------------------------|
A|-3---3---3---3--------------------------------------|
E|-----------------2---2---2---2---0---0---0---0------|
       Csus                 F               Em
e|----------------------------------------------------|
B|----------------------------------------------------|
G|---0---0---0---0---2---2---2---2---0---0---0---0----|
D|----------------------------------------------------|
A|-3---3---3---3--------------------------------------|
E|-----------------2---2---2---2---3---3---3---3------|
       Csus                 F               G

CHORUS

e|---------------------------------------------------|
B|---------------------------------------------------|
G|---0---0---0---0---2---2---2---2---0---0---0---0---|
D|---------------------------------------------------|
A|-3---3---3---3-------------------------------------|
E|-----------------2---2---2---2---0---0---0---0-----|
       Csus              F                 Em
e|---------------------------------------------------|
B|---------------------------------------------------|
G|---0---0---0---0---2---2---2---2---0---0---0---0---|
D|---------------------------------------------------|
A|-3---3---3---3-------------------------------------|
E|-----------------2---2---2---2---3---3---3---3-----|
      Csus                 F              G

e|-----------------|
B|-----------------|
G|---0---0---0---0-|
D|-----------------|
E|-0---0---0---0---|
        Em

e|---------------------------------------------------|
B|---------------------------------------------------|
G|---0---0---0---0---2---2---2---2---0---0---0---0---|
D|---------------------------------------------------|
A|-3---3---3---3-------------------------------------|
E|-----------------2---2---2---2---0---0---0---0-----|
       Csus              F                 Em
e|---------------------------------------------------|
B|---------------------------------------------------|
G|---0---0---0---0---2---2---2---2---0---0---0---0---|
D|---------------------------------------------------|
A|-3---3---3---3-------------------------------------|
E|-----------------2---2---2---2---3---3---3---3-----|
      Csus                 F              G

VERSE 3

e|--------------------------------------------------------|
B|--------------------------------------------------------|
G|---0---2---0---0---2---0---2---0---2---0---0---2---0----|
D|--------------------------------------------------------|
A|---------------3---------------------------3------------|
E|---3---2---0-------2---3---2---3---2---0-------2---0----|
     G   F  Em Csus  F   G   F   G   F   Em Csus F   Em

e|--------------------------------------------------------|
B|--------------------------------------------------------|
G|---0---0---0---0---0---0---0---0---2---2---2---2--------|
D|--------------------------------------------------------|
A|-----------------3---3---3---3--------------------------|
E|-0---0---0---0-------------------2---2---2---2----------|
         Em            Csus              F
e|-----------------------------------|
B|-------------------3---3---3---3---|
G|---0---0---0---0-------------------|
D|-----------------------------------|
A|-3---3---3---3---3---3---3---3-----|
E|-----------------------------------|
       Csus              Csus

CHORUS

e|---------------------------------------------------|
B|---------------------------------------------------|
G|---0---0---0---0---2---2---2---2---0---0---0---0---|
D|---------------------------------------------------|
A|-3---3---3---3-------------------------------------|
E|-----------------2---2---2---2---0---0---0---0-----|
       Csus              F                 Em
e|---------------------------------------------|
B|---------------------------------------------|
G|---0---0---0---0---2---2---2---2---0---2-----|
D|---------------------------------------------|
A|-3---3---3---3-------------------------------|
E|-----------------2---2---2---2-----3---2-----|
        Csus             F           G   F
e|---------------------------------------------------|
B|---------------------------------------------------|
G|---0---0---0---0---2---2---2---2---0---0---0---0---|
D|---------------------------------------------------|
A|-3---3---3---3-------------------------------------|
E|-----------------2---2---2---2---3---3---3---3-----|
      Csus                 F              G

e|-----------------|
B|-----------------|
G|---0---0---0---0-|
D|-----------------|
E|-0---0---0---0---|
        Em
e|---------------------------------------------------|
B|---------------------------------------------------|
G|---0---0---0---0---2---2---2---2---0---0---0---0---|
D|---------------------------------------------------|
A|-3---3---3---3-------------------------------------|
E|-----------------2---2---2---2---0---0---0---0-----|
       Csus              F                 Em
e|---------------------------------|
B|---------------------------------|
G|---0---0---0---0---2---2---2---2-|
D|---------------------------------|
A|-3---3---3---3-------------------|
E|-----------------2---2---2---2---|
       Csus              F

OUTRO

e|-----------------------------------------------------------------|
B|-----------------------------------------------------------------|
G|---0---0---0---0---2---2---2---2---0---0---0---0---0---0---0---0-|
D|-----------------------------------------------------------------|
A|-------------------------------------------------3---3---3---3---|
E|-3---3---3---3---2---2---2---2---0---0---0---0-------------------|
       G               F                Em              Csus
e|-----------------------------------|
B|-----------------------------------|
G|---2---2---2---2---0---0---0---0---|
D|-----------------------------------|
A|-----------------------------------|
E|-2---2---2---2---3---3---3---3-----|
        F               G
Tap to rate this tab
 
# A B C D E F G H I J K L M N O P Q R S T U V W X Y Z