Song name
# A B C D E F G H I J K L M N O P Q R S T U V W X Y Z

Misc Unsigned Bands - Jacob Jaillet - The Hunt tab

-----------------------------------------------------------------------------
(My First Guitar Instumental)The Hunt - Jacob Jaillet____
-----------------------------------------------------------------------------
Tabbed by: Kerry Fan1
Tuning: Standard


E|--------------------------------------------------------------------------|
B|--------------------------------------------------------------------------|
G|--------------------------------------------------------------------------|
D|--------------------------------------------------------------------------|
A|--5--5------4--5--0--5--5----4--5--0--5--5-----4--5--0-------X 6----------|
E|--3--3---3-----------3--3--3----------3--3--3-----------------------------|


E|--------------------------------------------------------------------------|
B|--------------------------------------------------------------------------|
G|-------------5--4--5----------5-4-5---------5-4-5----------5-4-5(5)------|
D|-------3-3------------4--5--3-------4--5-2--------5--4--1-----------------|
A|--12/--1-1----------------------------------------------------------------|
E|--------------------------------------------------------------------------|


E|---------------------------------2-1---(1)--------------------------------|
B|---------------------------2-3-4------------2-----------------------------|
G|--------------------2-3-5---------------------3-2-------------------------|
D|--------------2-3-4-------------------------------2-3---------------------|
A|-------2-3-5------------------------------------------3-2-----------------|
E|--2--3----------------------------------------------------2---------------|


E|--------------------------------------------------------------------------|
B|----------6-5-------------------------------------------------------------|
G|-------7------6-----------------------------------------------------------|
D|-----6----------5-4-------X 3---------------------------------------------|
A|---5----------------5----------------5(5)---X 4------7(7)----X 2--------|
E|----------------------5----------5-5--------------5-5---------------------|


E|--------------------------------------------------------------------------|
B|--------------------------------------------------------------------------|
G|--------------------------------------------------------------------------|
D|--------------------------------------------------------------------------|
A|-------5(5)-------3(3)------0---(0)--------------2(2)---------2(2)----|
E|---5-5--------5-5---------5-5------------2--1--0---0(0)--2-1-0--0-(0)----|


E|--------------------------------------------------------------------------|
B|--------------------------------------------------------------------------|
G|--------------------------------------------------------------------------|
D|---------5----5---4---3--------5--4-(4)------5--4-(4)-------5-4(4)-------|
A|--2--4---3----3---2---1-----2--3--2-(2)---2--3--2(2)-----2-3-2-(2)--2(2)|
E|--0--2------0------------0--0-----------0-0------------0--0--------0-0-(0)|


E|--------------------------------------------------------------------------|
B|--------------------------------------------------------------------------|
G|--------------------------------------------------------------------------|
D|--5--7--8--3--5---(5)-----X 3---------------------------------------------|
A|--3--5--6--1--3---(3)-----------------------------------------------------|
E|--------------------------------------------------------------------------|
Tap to rate this tab
 
# A B C D E F G H I J K L M N O P Q R S T U V W X Y Z