Song name
# A B C D E F G H I J K L M N O P Q R S T U V W X Y Z

Misc Unsigned Bands - Koshi Inaba - Akai Ito tab

Song: Akai Ito by Koshi Inaba 
Anime Ost: Kekaishi 1st Ed.
Tabbed by: Arvin Guinto
Email: arvin_cut3143@yahoo.com

h = hammer
p = pull

Standard Tuning.

Intro:
         
          Am                C               F               G
e|-----0-0-0-0-----|----------------|---------------|--------------|
B|-----1-1-1-0-----|----------------|---------------|-----1-0-1----|
G|-------------2-0-|-------0----0---|-----0-0h2-0---|---0-------0--|
D|---2-------------|---0h2----2---2-|---3---------3-|--------------|
A|-0---------------|-3--------------|---------------|--------------|
E|-----------------|----------------|-1-------------|-3------------|

Verse I:
         
          Am                C              G            Am 
e|--0-0--0-0-0-0---|-----------0----|------0-----|-----0-0-0-0-----|
B|--1-1--1-1-1-1---|---------3------|--------3---|-----1-1-1-0-----|
G|--2-2--2-2-2-2---|-------0-----0--|----0-----0-|-------------2-0-|
D|--2-2--2-2-2-2---|----------------|------------|---2-------------|
A|--0-0--0-0-0-0---|-0-2-3----------|------------|-0---------------|
E|-----------------|----------------|--3---------|-----------------|
                   Minareta machi~       yuukuri~~fu   kinukeru kaze~

       
         C                 F               G             C         G
e|-----------0-----|----------------|--------------|-------0---|-------|
B|---------3-------|----------------|----1p0-------|-----3-----|---1-0-|
G|-------------0---|--------0-2-----|---------0----|---0-----0-|-------|
D|----0h2----------|-----3------3---|----------0---|-----------|-------|
A|--3--------------|----------------|------------2-|-3---------|-------|
E|-----------------|--1-------------|-3------------|-----------|-3-----|
  ~~~      Futari shite     itsumo no peesu   dearuiteru~~~

Verse II:

          C             G              Am
e|------------0----|------0-----|-----0-0-0-0-----|
B|----------3------|--------3---|-----1-1-1-0-----|
G|--------0-----0--|----0-----0-|-------------2-0-|
D|-----------------|------------|---2-------------|
A|------3----------|------------|-0---------------|
E|-----------------|--3---------|-----------------|
 Fuzake~atte            waratta  ato ni kizuita~~~~

          C                 F               G            C           C
e|-----------0-----|----------------|--------------|-------0---|-----------|
B|---------3-------|----------------|----1p0-------|-----3-----|---3p1-3p1-|
G|-------------0---|--------0-2-----|---------0----|---0-----0-|-----------|
D|----0h2----------|-----3------3---|----------0---|-----------|-----------|
A|--3--------------|----------------|------------2-|-3---------|-3---------|
E|-----------------|-1--------------|-3------------|-----------|-----------|
 ~~~~~~~~     Mita  kotonai     otonabita  sono  manazashi~~


Sorry guys, I havent finish tabbing the Brigde & Ending part.
This is it for now. Enjoy! -vin
Tap to rate this tab
 
# A B C D E F G H I J K L M N O P Q R S T U V W X Y Z