Song name
# A B C D E F G H I J K L M N O P Q R S T U V W X Y Z

Misc Unsigned Bands - Random Strangers - New Song chords

Highlighted       Show chord diagrams
INTRO!
E 		         A
I would like to say Iíve lived my life
E	         A	
With no pain, regrets or strife
E	                                     A
But I just canít get myself to tell this lie
E	                                                A
Thereís plenty of things that in my mind, donít fly
E	           A			E	         A
For example, let me tell you a story of a girl
VERSE
E	   		      A
for half my life this girlís always been around
E		         A
weíve spent 10 	years living in the same town	
E	    			            A	
I wish more than anything that I could go back now
E	                   A
And find a way to restart somehow



BRIDGE
Esus4		          A			               E	A
I have all these feeling of regret that just donít seem to go away
Esus4					A
I need to tell you something, so let me just tell you my way



Guitar 2 for chorus
|-4--5--4------4-|-5--7--7--(7)---|-4--5--4------4-|-7--5--4--(4)----|
|-5--7--5------5-|-7--9--9--(9)---|-5--7--5------5-|-9--7--5--(5)----|
|----------------|----------------|----------------|-----------------|
|----------------|----------------|----------------|-----------------|
|----------------|----------------|----------------|-----------------|
|----------------|----------------|----------------|-----------------|
CHORUS
E			     A
i never had the courage to talk to you
E                                                    A
cuz I am a nerd and you are a part of the popular crew
E			A
Im not saying at all that I regret who I am
E				A
But it makes me wonder, what could have been
Esus4		 	A	  	            E	A
Im thinking about all those times I saw you in the hall
Esus4			A		E	A
Wonderin why I didnít say anything at all


(Repeat E and A through this verse)

I have to say that my biggest mistake
Is one that causes my heart to break
We were never friends until junior year
Now its so sad that I have to say the end is near



E			A
The past few weeks that weíve spent together
E			A	
Have been just like a change of weather
E			A
The sunís come up, my lifes turned around
E			A
Im thankful for this best friend I have found
Esus4			A	E	A
Its time to make up for memories of time gone
Esus4			A	E	A
Weíve already made the best of my life even though we havenít been friends long


Guitar 2 for slow part (repeats with slight variation)
||---4-------|-2----0-(0)----|-4--------|-5----7----5---||-|
||---5-------|-4----2-(2)----|-5--------|-7----9----7---||-|
||-----------|---------------|----------|---------------||-|
||-----------|---------------|----------|---------------||-|
||-----------|---------------|----------|---------------||-|
||-----------|---------------|----------|---------------||-|

You might think I am weird, but I just couldnít bear
To keep this to myself so I donít care.
I know we havenít been friends for long
But you mean so much to me, I had to write this song
weíve made a friendship that can withstand whatever
Girl I have to say I hope it lasts forever




E			A
The past few weeks that weíve spent together
E			A	
Have been just like a change of weather
E			A
The sunís come up, my lifes turned around
E			A
Im thankful for this best friend I have found

(Repeat E and A to End)
Tap to rate this tab
 
# A B C D E F G H I J K L M N O P Q R S T U V W X Y Z