Misc Unsigned Bands - Fear The Jackalope - 333 tab

Fear The Jackalope
Breach [EP]- 333
Written and Tabbed by Kyle E.
Open Csus2 {C,G,C,G,C,D}

|-------------------------------------------------------|
|-------------------------------------------------------|
|-------------------------------------------------------|
|-----0~-----0~----10~---10~----5~----5~----7----8p7----|
|---0------0-----8-----8------3-----3-----5----5--------|
|-0------0-----8-----8------3-----3-----5----5----------|


|-------------------------------------------------------|
|-------------------------------------------------------|
|-------------------------------------------------------|
|-----0~-----0~----10~---10~----5~----5~----7~---8p7----|
|---0------0-----8-----8------3-----3-----5~--------8P5-|
|-0------0-----8-----8------3-----3-----5~--------------|

Pretty much the whole song, clean with delay, live I use a wah to act as a flanger effect.
Tap to rate this tab
 
# A B C D E F G H I J K L M N O P Q R S T U V W X Y Z