Song name
# A B C D E F G H I J K L M N O P Q R S T U V W X Y Z

Misc Unsigned Bands - Andrew Davie - Elysium tab

Elysium  - Andrew Davie - tabed by Lewys Jones

Open D tuning: D A D F# A d

cappo on 3rd

Apologies for not naming the chords, I'm not at all familiar with open D tuning and i 
this out with the only youtube video of him playing i could find, I know it's not ideal 
it's a start at tabbing this beautiful song.

For now I'll label the chords 1,2,3,4,5

        1      2       3      4      5
d |-----0-------0------0------0------0--------------------|
A |-----0-------0------0------0------0--------------------|
F#|-----0-------3------0------1------1--------------------|
D |-----0-------0------0------0------2--------------------|
A |-----0-------5------4------2------0--------------------|
D |-----0-------4------4------2------0--------------------|    (relative to cappo)

Verse 1: (pm)

1                                      2
Brother, do you believe in an afterlife?

                                 3
Where our souls will both collide,

                2                     1
In some great Elysium, way up in the sky

                                         2
Free from our shackles, our chains, our mouths, our brains,
                    3                    3                              1
We'll open all the gates and we will walk careless straight into the light

 (no pm)   1        2       1       2


Verse 2: (pm)
1                         2
I never felt too enlightened,

                    3                               2        1
With every page I turned, I only found myself feeling more alone

                                    2
Posing questions to a silent universe

                    3                                 2               4
My very thoughts a curse, they just seem to multiply, forever in my mind


                    5
Brother, don't grow up

4                          5
Brother, please never grow up

Fill: (not relative to cappo, played whilst strumming all strings)

d |-----10-----3--5--7--10-----3--5--7--10------3-----5---7--5-----5--3--5-----------------------|
A |----------------------------------------------------------------------------------------------|
F#|----------------------------------------------------------------------------------------------|
D |----------------------------------------------------------------------------------------------|
A |----------------------------------------------------------------------------------------------|
D |----------------------------------------------------------------------------------------------|

Chorus:
2                        0
Hold out against the night

2                         0
Guard your hope with your life

4	                     5
For the darkness, She will come

4                                  5
Oh and you, Will have no where to run

                 2                                    4
But your eyes are wider than mine, and help me to sleep

              2                         4
I hope that age does not erase that you see

2                            4
Don't let bitterness become you

2                                4
Your only hopes are all within you

2                        0
Hold out against the night

2                           0
Guard your hope with your life

4                          5
For the darkness, She will come

4                                5
Oh and you, Will have no where to run


Please email any corrections to lewys_jones92@hotmail.co.uk thanks and I hope people get 
out of this tab.
Tap to rate this tab
 
# A B C D E F G H I J K L M N O P Q R S T U V W X Y Z