Misc Unsigned Bands - Freen In Green - Frontier Factory tab

FRONTIER FACTORY -
Tuning: Standard OR Drop D tuning. It's half a step down on the album, but live
and in future re-records it's in standard D.
Effects: Wah, Distortion


=================================================================

INTRO:
e---------------------------------------------------|
B---------------------------------------------------|
G--------------7-----------------------7------------|
D--0-----------------------0------------------------|
A---------------------------------------------------|
D---------------------------------------------------|


=================================================================

VERSE:
e---------------------------------------------------|
B---------------------------------------------------|
G---5-H7--7--7--x--x--5-H7--7--7--x--x--5-H7--x--x--|
D---0-----0--0--x--x--0-----0--0--x--x--0-----x--x--|
A---------------------------------------------------|
D---------------------------------------------------|

(Repeat 3 times, then silence for a measure.
Then repeat another 3 times, and silence for one measure again)


=================================================================

CHORUS:
N/A

There's Synth going on here. You can play it on the A string, on
1 and 5, though.

=================================================================

VERSE 2:
e---------------------------------------------------|
B---------------------------------------------------|
G---5-H7--7--7--x--x--5-H7--7--7--x--x--5-H7--x--x--|
D---0-----0--0--x--x--0-----0--0--x--x--0-----x--x--|
A---------------------------------------------------|
D---------------------------------------------------|

(Repeat 3 times, then silence for a measure.
Then repeat another 3 times, and silence for one measure again)


=================================================================


SOLO 1

e-------------------------------------------------------------|
B---5--5-6---6-8---6-6---6-5---5-5-5--5-6-6-6-8--6-6--6-5-----|
G---7--7-7---7-7---7-7---7-7---7-7-7--7-7-7-7-7--7-7--7-7-----|
D---0--0-0---0-0---0-0---0-0---0-0-0--0-0-0-0-0--0-0--0-0-x-x-|
A-------------------------------------------------------------|
D-------------------------------------------------------------|

e---------------------------------------------------|
B---------------------------------------------------|
G---5-H7--7--7--x--x--5-H7--7--7--x--x--5-H7--x--x--|
D---0-----0--0--x--x--0-----0--0--x--x--0-----x--x--|
A---------------------------------------------------|
D---------------------------------------------------|

e---------------------------------------------------|
B---------------------------------------------------|
G---5-H7--7--7--x--x--5-H7--7--7--x--x--5-H7--x--x--|
D---0-----0--0--x--x--0-----0--0--x--x--0-----x--x--|
A---------------------------------------------------|
D---------------------------------------------------|

---

e-------------------------------------------------------------|
B---5--5-6---6-8---6-6---6-5---5-5-5--5-6-6-6-8--6-6--6-5-----|
G---7--7-7---7-7---7-7---7-7---7-7-7--7-7-7-7-7--7-7--7-7-----|
D---0--0-0---0-0---0-0---0-0---0-0-0--0-0-0-0-0--0-0--0-0-x-x-|
A-------------------------------------------------------------|
D-------------------------------------------------------------|

e---------------------------------------------------|
B---------------------------------------------------|
G---5-H7--7--7--x--x--5-H7--7--7--x--x--5-H7--x--x--|
D---0-----0--0--x--x--0-----0--0--x--x--0-----x--x--|
A---------------------------------------------------|
D---------------------------------------------------|

e---------------------------------------------------|
B---------------------------------------------------|
G---5-H7--7--7--x--x--5-H7--7--7--x--x--5-H7--x--x--|
D---0-----0--0--x--x--0-----0--0--x--x--0-----x--x--|
A---------------------------------------------------|
D---------------------------------------------------|

=================================================================

CHORUS 2

e---------------------------------------------------|
B---------------------------------------------------|
G---7-----------------------------------------------|
D---0-----------------------------------------------|
A---------------------------------------------------|
D---------------------------------------------------|

(Again, more synth being played around 1 and 5 on A)

=================================================================

SOLO 2 Part A. (Start at low volume, get louder.)

e-------------------------------------------------------------|
B---5--5-6---6-8---6-6---6-5---5-5-5--5-6-6-6-8--6-6--6-5-----|
G---7--7-7---7-7---7-7---7-7---7-7-7--7-7-7-7-7--7-7--7-7-----|
D---0--0-0---0-0---0-0---0-0---0-0-0--0-0-0-0-0--0-0--0-0-x-x-|
A-------------------------------------------------------------|
D-------------------------------------------------------------|

e---------------------------------------------------|
B---------------------------------------------------|
G---5-H7--7--7--x--x--5-H7--7--7--x--x--5-H7--x--x--|
D---0-----0--0--x--x--0-----0--0--x--x--0-----x--x--|
A---------------------------------------------------|
D---------------------------------------------------|

e---------------------------------------------------|
B---------------------------------------------------|
G---5-H7--7--7--x--x--5-H7--7--7--x--x--5-H7--x--x--|
D---0-----0--0--x--x--0-----0--0--x--x--0-----x--x--|
A---------------------------------------------------|
D---------------------------------------------------|

---

e-------------------------------------------------------------|
B---5--5-6---6-8---6-6---6-5---5-5-5--5-6-6-6-8--6-6--6-5-----|
G---7--7-7---7-7---7-7---7-7---7-7-7--7-7-7-7-7--7-7--7-7-----|
D---0--0-0---0-0---0-0---0-0---0-0-0--0-0-0-0-0--0-0--0-0-x-x-|
A-------------------------------------------------------------|
D-------------------------------------------------------------|

e---------------------------------------------------|
B---------------------------------------------------|
G---5-H7--7--7--x--x--5-H7--7--7--x--x--5-H7--x--x--|
D---0-----0--0--x--x--0-----0--0--x--x--0-----x--x--|
A---------------------------------------------------|
D---------------------------------------------------|

e---------------------------------------------------|
B---------------------------------------------------|
G---5-H7--7--7--x--x--5-H7--7--7--x--x--5-H7--x--x--|
D---0-----0--0--x--x--0-----0--0--x--x--0-----x--x--|
A---------------------------------------------------|
D---------------------------------------------------|


=================================================================

SOLO 2 Part B (Use Distortion)

e--------------------------------------------------|
B--------------------------------------------------|
G---5--6-------------------5--5--6-----------------|
D---------7--------------------------7-------------|
A--------------------------------------------------|
D--------------------------------------------------|

e--3-5-3-5-3-5-3-5-3-5-3-5-3-5-3-5-3-5-3-5-3-5-3-5-3-5-3-5-3-5-3-5-|
B------------------------------------------------------------------|
G------------------------------------------------------------------|
D------------------------------------------------------------------|
A------------------------------------------------------------------|
D------------------------------------------------------------------|


e--------------------------------------------------|
B--------------------------------------------------|
G---5--6-------------------5--5--6-----------------|
D---------7--------------------------7-------------|
A--------------------------------------------------|
D--------------------------------------------------|

e--3-5-3-5-3-5-3-5-3-5-3-5-3-5-3-5-T8-5-3-5-T8-5-3-5-T10----------|
B-----------------------------------------------------------------|
G-----------------------------------------------------------------|
D-----------------------------------------------------------------|
A-----------------------------------------------------------------|
D-----------------------------------------------------------------|
Tap to rate this tab
 
# A B C D E F G H I J K L M N O P Q R S T U V W X Y Z