Misc Unsigned Bands - Elexa - When The Light Hits Just Right tab

A.|---------------------------------------------------------------|
  |---------------------------------------------------------------|
  |---------------------------------------------------------------| 
  |---------------------------------------------------------------|  
  |-----5---------5---------4---------4---------------------------|
  |0h5h8-8r5-0h5h8-8r5-0h4h7-7r4-0h4h7-7r4------------------------|

  |---------------------------------------------------------------|
  |---------------------------------------------------------------|
  |---------------------------------------------------------------| 
  |---------------------------------------------------------------|  
  |-----5---------5---------4---------4---------------------------|
  |0h5h8-8r5-0h5h8-8r5-0h4h7-7r4-0h4h7----------------------------|

B.|---------------------------------------------------------------|
  |---------------------------------------------------------------|
  |---------------------------------------------------------------| 
  |-----7---------7---------5---------5---------------------------|  
  |0h5h8-8r5-0h5h8-8r5-0h4h7-7r4-0h4h7-7r4------------------------|
  |---------------------------------------------------------------|

  |---------------------------------------------------------------|
  |---------------------------------------------------------------|
  |---------------------------------------------------------------| 
  |-----7---------7---------5---------5---------------------------|  
  |0h5h8-8r5-0h5h8-8r5-0h4h7-7r4-0h4h7----------------------------|
  |---------------------------------------------------------------|

C.|---------------------------------------------------------------|
  |---------------------------------------------------------------|
  |---------------------------------------------------------------| 
  |---------------------------------------------------------------|  
  |0h5h8-0h5h8-0h5h8-0h5h8-0h4h7-0h4h7-0h4h7-0h4h7----------------|
  |---------------------------------------------------------------|


  |---------------------------------------------------------------|
  |---------------------------------------------------------------|
  |---------------------------------------------------------------| 
  |---------------------------------------------------------------|  
  |0h5h8-0h4h7-0h7h10-0h5h8-0h8h12-0h7h10-0h10h13-0h7h10----------|
  |---------------------------------------------------------------|

x4 from C.

D.|---------------------------------------------------------------|
  |---------------------------------------------------------------|
  |---------------------------------------------------------------| 
  |0------------------7---------5---------------------------------|  
  |0-------------0h5h8-8r5-0h4h7-7r4------------------------------|
  |0-000-000-000--------------------------------------------------|

  |---------------------------------------------------------------|
  |---------------------------------------------------------------|
  |---------------------------------------------------------------| 
  |0--------------------------------------------------------------|  
  |0------------------5---------4---------------------------------|
  |0-000-000-000-0h5h8-8r5-0h4h7-7r4------------------------------|

  |---------------------------------------------------------------|
  |---------------------------------------------------------------|
  |---------------------------------------------------------------| 
  |0------------------7---------5---------------------------------|  
  |0-------------0h5h8-8r5-0h4h7-7r4------------------------------|
  |0-000-000-000--------------------------------------------------|

  |---------------------------------------------------------------|
  |---------------------------------------------------------------|
  |---------------------------------------------------------------| 
  |0--------------------------------------------------------------|  
  |0------------------5------4------------------------------------|
  |0-000-000-000-0h5h8--0h4h7-------------------------------------|

x2 from D.

E.|---------------------------------------------------------------|
  |---------------------------------------------------------------|
  |---------------------------------------------------------------| 
  |0-------------0-------------0----------------------------------|  
  |0-------------0-------------0-------------5--------------------|
  |0-000-555-888-0-000-444-777-0-000-555-888---888-555-777--------|


  |---------------------------------------------------------------|
  |---------------------------------------------------------------|
  |---------------------------------------------------------------| 
  |0-------------0-------------0----------------------------------|  
  |0-------------0-------------0-------------5--------------------|
  |0-000-555-888-0-000-444-777-0-000-555-888---888-555-333--------|

x2 from E.

F.|---------------------------------------------------------------|
  |---------------------------------------------------------------|
  |---------------------------------------------------------------| 
  |0--------------------------------------------------------------|  
  |0--------------------------------------------------------------|
  |0-00-0000-0-00-------------------------------------------------|

x4 from F.

G.|---------------------------------------------------------------|
  |---------------------------------------------------------------|
  |---------------------------------------------------------------| 
  |0-------------------8-888888-555-777-0-------------------------|  
  |0--5-7-8-7-5-4h5r4--8-888888-555-777-0-------------------------|
  |0-0-0-0-0-0-0-----0-8-888888-555-777-0-------------------------|


  |---------------------------------------------------------------|
  |---------------------------------------------------------------|
  |---------------------------------------------------------------| 
  |0-------------------8-888888-555-111-0-------------------------|  
  |0--5-7-8-7-5-4h5r4--8-888888-555-111-0-------------------------|
  |0-0-0-0-0-0-0-----0-8-888888-555-111-0-------------------------|

x2 from G.


H.|---------------------------------------------------------------|
  |---------------------------------------------------------------|
  |---------------------------------------------------------------| 
  |-----7-------7-------7-------78-------75-------7r0-------------|  
  |-5-8---4-5-8---4-5-8---4-5-8--8---5-8--5---5-8-----------------|
  |0-0-0-0-0-0-0-0-0-0-0-0-0-0-0-8--8-8-8-5--5-5-5---0------------|

x2 from H.

  |---------------------------------------------------------------|
  |---------------------------------------------------------------|
  |---------------------------------------------------------------| 
  |0--------------------------------------------------------------|  
  |0--------------------------------------------------------------|
  |0--------------------------------------------------------------|

I.|---------------------------------------------------------------|
  |---------------------------------------------------------------|
  |---------------------------------------------------------------| 
  |---------------------------------------------------------------|  
  |---------------------------------------------------------------|
  |00000--00000-00000-00000-00000-00000--00000--00000--00000-00000|

x2 from I.

J.|---------------------------------------------------------------|
  |---------------------------------------------------------------|
  |---------------------------------------------------------------| 
  |0---8---5---7---0---8---5---7----------------------------------|  
  |0---8---5---7---0---8---5---7----------------------------------|
  |0---8---5---7---0---8---5---7----------------------------------|

x2 from J.

  |---------------------------------------------------------------|
  |---------------------------------------------------------------|
  |---------------------------------------------------------------| 
  |0--------------------------------------------------------------|  
  |0--------------------------------------------------------------|
  |0--------------------------------------------------------------|
Tap to rate this tab
 
# A B C D E F G H I J K L M N O P Q R S T U V W X Y Z