Misc Unsigned Bands - Ghost Hounds - Ashes To Fire tab

-------------------------------------------------------------------------------
			     SONG NAME - Band Name
-------------------------------------------------------------------------------
Tabbed by: baptie
Email: kbaptie@hotmail.co.uk

This is my first tab so please point out anything that isn't quite right.

Tuning: standard EADGBE


Intro/Main Riff

e|-----------------------------------------------------|
B|-----------------------------------------------------|
G|-3h6/8--8----3/8-------6-----------------------------| x6
D|-------------------6-8-------------------------------|
A|-----------------------------------------------------|
E|-----------------------------------------------------|


Chorus

Listen for how many times to play each note
e|--------------------------------------------------|
B|--------------------------------------------------|
G|-8----11------------------------------------------| x2 
D|-8----11----6-----8-------------------------------|
A|-6----9-----6-----8-------------------------------|
E|------------4-----6-------------------------------|


Verse 1

e|-----------------------------------------------------|
B|-----------------------------------------------------|
G|-3h6/8--8----3/8-------6-----------------------------| x4
D|-------------------6-8-------------------------------|
A|-----------------------------------------------------|
E|-----------------------------------------------------|


Chorus

Listen for how many times to play each note
e|--------------------------------------------------|
B|--------------------------------------------------|
G|-8----11------------------------------------------| x2 
D|-8----11----6-----8-------------------------------|
A|-6----9-----6-----8-------------------------------|
E|------------4-----6-------------------------------|


Verse 2 - Guitar 1 plays main riff, guitar 2 plays this
 
e|-11--9----------------------------------------|
B|--------13--11--------------------------------|
G|----------------------------------------------| x4
D|----------------------------------------------|
A|----------------------------------------------|
E|----------------------------------------------|


Verse 3 - Main Riff moved up 1 fret

e|-----------------------------------------------------|
B|-----------------------------------------------------|
G|-4h7/9--9----4/9-------7-----------------------------| x4
D|-------------------7-9-------------------------------|
A|-----------------------------------------------------|
E|-----------------------------------------------------|


Chorus Alt - Also just moved up 1 fret

e|--------------------------------------------------|
B|--------------------------------------------------|
G|-9----12------------------------------------------| x4
D|-9----12----7-----9-------------------------------|
A|-7----10----7-----9-------------------------------|
E|------------5-----7-------------------------------|


Verse 4

e|-----------------------------------------------------|
B|-----------------------------------------------------|
G|-4h7/9--9----4/9-------7-----------------------------| x4
D|-------------------7-9-------------------------------|
A|-----------------------------------------------------|


Bridge

Listen for how many times to play each note
e|------------------------------------------------|
B|------------------------------------------------|
G|-9----7----6----5--4----------------------------| x2
D|------------------------------------------------|
A|-7----5----4----3--2----------------------------|
E|------------------------------------------------|


Outro

e|--------------------------------------------------------------|
B|--------------------------------------------------------------|
G|-9----12------------------------9----12----7---------9--------|
D|-9----12----7-----9-------------9----12----7----9----9--------|
A|-7----10----7-----9-------------7----10----7----9----7--------|
E|------------5-----7------------------------5----7-------------|


************************************

| /   slide up
| \   slide down
| h   hammer-on
| p   pull-off
| ~   vibrato
| +   harmonic
| x   Mute note
| b   Bend
| pb  Pre-bend
| br  Bend release
| pbr Pre-bend release
| brb Bend release bend

************************************
Tap to rate this tab
 
# A B C D E F G H I J K L M N O P Q R S T U V W X Y Z