Misc Unsigned Bands - Voyager - Sober tab

Main Riff + Chorus Riff

Listen to the Song for the Rythmn (i may not have counted the number of strums
correctly either so pay attention to the song)
-------------------------------------------------------------------------|
-------------------------------------------------------------------------|
-------------------------------------------------------------------------|
-------------------------------------------------------------------------|
--4--4--4--4--6--6--6/7--7--7--7--7--7--7/9--9--9--9--7--7--7\2--2--2--2-|
--2--2--2--2--4--4--4/5--5--5--5--5--5--5/7--7--7--7--5--5--5\0--0--0--0-|

The Second part of the riff is Generally the same but with Palm muted notes inbetween 
chord
-------------------------------------------------------------------------|
-------------------------------------------------------------------------|
-------------------------------------------------------------------------|
-------------------------------------------------------------------------|
4--4--4--4--6---6---6/7--7--7--7--7---7----------------------------------|
2222222222224-4-4-4-4/5555555555555-5-5-5--------------------------------|
 .. .. .. ..  .   .    .. .. .. ..  . . .

                                         I  am  trying  so  hard  to feel
--------------------------------------------|
--------------------------------------------|
--------------------------------------------|
--------------------------------------------|
7/9--9--9--9--7---7---7\2--2--2--2--2-2--4--|
5/7--7777777775-5-5-5-5\0--000000000000--2--|Slowly Fade out as vocals enter

No Guitar for a little bit

I can promise her a life of   wonderful    perfection
I can promise her that i will Lead her from Despair
-------------------------------------------------------------------------|
-------------------------------------------------------------------------|
-------------------------------------------------------------------------|
-------------------------------------------------------------------------|
-------------------------------------------------------------------------|
22222222-2-2-2-22222222-2-2-2-55555555-5-5-5-44444444-4-4-4--------------| x2
All Palm Muted

Come the Day                       and i'll be over
And i will          leave her all alone
-------------------------------------------------------------------------|
-------------------------------------------------------------------------|
-------------------------------------------------------------------------|
-------------------------------------------------------------------------|
-------------------------------------------------------------------------|
-2--2--2-2-2-2-2--2--2--2-2-2-2-2--9--9--9-9-9-9-9--9--9--9-9-9-9-9------| x2
All Palm Muted

Will I stay? Will I stay sober? Or just bottle all my shame?
-------------------------------------------------------------------------|
-------------------9/10----9\7-------7\2---------------------------------|
-------------------------------------------------------------------------|
-------------------------------------------------------------------------|
--------4----------------------------------------------------------------|
--------2----------------------------------------------------------------|

 She         She Drags me under   Pulls me over       Now i'm sober
-------------------------------------------------------------------------|
-------------------------------------------------------------------------|
-------------------------------------------------------------------------|
-------------------------------------------------------------------------|
--4--4--4--4--6--6--6/7--7--7--7--7--7--7/9--9--9--9--7--7--7\2--2--2--2-|
--2--2--2--2--4--4--4/5--5--5--5--5--5--5/7--7--7--7--5--5--5\0--0--0--0-|

She           I don't want her anymore
----------------------------------------------------------------------------|
----------------------------------------------------------------------------|
----------------------------------------------------------------------------|
----------------------------------------------------------------------------|
--4--4--4--4--6---6---6/7--7--7--7--7---7-----------------------------------|
--2222222222224-4-4-4-4/5555555555555-5-5-5---------------------------------|
   .. .. .. ..  .   .    .. .. .. ..  . . .

I don't need her anymore So i leave her standing... When I look at her
----------------------------------------------|
----------------------------------------------|
----------------------------------------------|
----------------------------------------------|
--7/9--9--9--9--7---7---7\2--2--2--2--2-2--4--|
--5/7--7777777775-5-5-5-5\0--000000000000--2--|Fade out as vocals enter again

No Guitar Again


I can promise her a life of   wonderful    perfection!
I can promise her that i will Lead her from Despair!
-------------------------------------------------------------------------|
-------------------------------------------------------------------------|
-------------------------------------------------------------------------|
-------------------------------------------------------------------------|
-------------------------------------------------------------------------|
22222222-2-2-2-22222222-2-2-2-55555555-5-5-5-44444444-4-4-4--------------| x2
All Palm Muted

Come the Day          and i'll be over
And i will  leave her all alone
-------------------------------------------------------------------------|
-------------------------------------------------------------------------|
-------------------------------------------------------------------------|
-------------------------------------------------------------------------|
-------------------------------------------------------------------------|
-2--2--2-2-2-2-2--2--2--2-2-2-2-2--9--9--9-9-9-9-9--9--9--9-9-9-9-9------| x2
All Palm Muted


Will I stay? Will I stay sober? Or just bottle all my shame?
-------------------------------------------------------------------------|
-------------------9/10----9\7-------7\2---------------------------------|
-------------------------------------------------------------------------|
-------------------------------------------------------------------------|
--------4----------------------------------------------------------------|
--------2----------------------------------------------------------------|


 She         She Drags me under   Pulls me over       Now i'm sober
-------------------------------------------------------------------------|
-------------------------------------------------------------------------|
-------------------------------------------------------------------------|
-------------------------------------------------------------------------|
--4--4--4--4--6--6--6/7--7--7--7--7--7--7/9--9--9--9--7--7--7\2--2--2--2-|
--2--2--2--2--4--4--4/5--5--5--5--5--5--5/7--7--7--7--5--5--5\0--0--0--0-|

She           I don't want her anymore
----------------------------------------------------------------------------|
----------------------------------------------------------------------------|
----------------------------------------------------------------------------|
----------------------------------------------------------------------------|
--4--4--4--4--6---6---6/7--7--7--7--7---7-----------------------------------|
--2222222222224-4-4-4-4/5555555555555-5-5-5---------------------------------|
   .. .. .. ..  .   .    .. .. .. ..  . . .

I don't need her anymore So i leave her standing...
-------------------------------------------------------------------------|
-------------------------------------------------------------------------|
-------------------------------------------------------------------------|
-------------------------------------------------------------------------|
--7/9--9--9--9--7---7---7\2--2--2--2--2-2--4-----------------------------|
--5/7--7777777775-5-5-5-5\0--000000000000--2-----------------------------|


SOLO

You're gonna really have to listen hard to the rythmn again , it's a bit hard to work it 
straight from the tab

-------5-----------------------------------------------------------------|
----------8p5---8brp5--7brp5---------------------------------------------|
---7b-------------------------7--5--4h5p4--------------------------------|
------------------------------------------5----------5--7----------------|
---------------------------------------------5/7---7---------------------|
-------------------------------------------------------------------------|

----------------------------5----------------------10--12h14p12p10h12-13-14-----------------|
----------------------8---------12h13p12p10h12h13--------------------------7bp5 7bp5 *7bp5--|
--------------------------------------------------------------------------------------------|
--------------------------------------------------------------------------------------------|
--------------------------------------------------------------------------------------------|

Small Keyboard Solo

-12-----12---------------------------------------------------------------|
----12b-----12b-10h12p10--9h10p9\7---------------------------------------|
-------------------------------------2-4-2-1-1h2p1-----------------------|
---------------------------------------------------2---------------------|
-----------------------------------------------------2/4-----------------|
-------------------------------------------------------------------------|


Might be up Octave on CD
--5---2-------------2--------------2/5-\2-----------2--------------------|
----------5---2----------5p2--5b-------------5---2-----------------------|
-----------------4-------------------------------------------------------|
-------------------------------------------------------------------------|
-------------------------------------------------------------------------|
-------------------------------------------------------------------------|

 She         She Drags me under   Pulls me over       Now i'm sober
-------------------------------------------------------------------------|
-------------------------------------------------------------------------|
-------------------------------------------------------------------------|
-------------------------------------------------------------------------|
--4--4--4--4--6--6--6/7--7--7--7--7--7--7/9--9--9--9--7--7--7\2--2--2--2-|
--2--2--2--2--4--4--4/5--5--5--5--5--5--5/7--7--7--7--5--5--5\0--0--0--0-|

She           I don't want her anymore
----------------------------------------------------------------------------|
----------------------------------------------------------------------------|
----------------------------------------------------------------------------|
----------------------------------------------------------------------------|
--4--4--4--4--6---6---6/7--7--7--7--7---7-----------------------------------|
--2222222222224-4-4-4-4/5555555555555-5-5-5---------------------------------|
   .. .. .. ..  .   .    .. .. .. ..  . . .

Outro
-------------------------------------------------------------------------|
---7--9--10/12---9--5--5h7-7--5-5h7-5h7----------------------------------|
-------------------------------------------------------------------------|
-------------------------------------------------------------------------|
-------------------------------------------------------------------------|
-------------------------------------------------------------------------|
Repeat until end

I guarentee this is 100% , the Rythmn may just be a bit tricky at first for some parts.

Keyboard Intro

-------------------------------------------------------------------------|
-------------------------------------------------------------------------|
-------------------------------------------------------------------------|
-------------------------------------------------------------------------|
--4--4--4--4--6--6--6/7--7--7--7--7--7--7/9--9--9--9--9--7--9\7--7--7--7-|
--2--2--2--2--4--4--4/5--5--5--5--5--5--5/7--7--7--7--7--5--7\5--5--5--5-|
Tap to rate this tab
 
# A B C D E F G H I J K L M N O P Q R S T U V W X Y Z