Song name
# A B C D E F G H I J K L M N O P Q R S T U V W X Y Z

Misc Unsigned Bands - Trey Garrison - Untitled Project 2010 tab

-----------------------------------------------------------------------------
			     Untitled Project 2010 - Trey Garrison
-----------------------------------------------------------------------------
Tabbed by:Trey Garrison
Email:treygarrison@windstream.net

Tuning:Drop C#

e|--------------------------------------------------------------------------|
B|--------------------------------------------------------------------------|
G|--------------------------------------------------------------------------|
D|--0------0--0------0--0------0--0------0--0----------0--------------------|
A|--0-(x3)-0--0-(x3)-0--0-(x3)-0--0-(x3)-0--0-(x14)----0--------------------|
E|--1------1--1------1--1------1--1------1--1----------0--------------------|
    -      -  -      -  -      -  -      -  -          -

e|--------------------------------------------------------------------------|
B|--------------------------------------------------------------------------|
G|--------------------------------------------------------------------------|
D|----------0-------------------0--------0--33--0---------------------------|
A|--5h7h8p--0--5h85h8-4h74h7----0-(ring)-0--33--0---------------------------|
E|----------0-------------------0--------0--33--0---------------------------|
            -                            -      -

e|--------------------------------------------------------------------------|
B|--------------------------------------------------------------------------|
G|--------------------------------------------------------------------------|
D|----------------------5h7h8-------------------0-------------------(x2)----|
A|--00000000000000-5h7h8-----5h7-5h85h8-4h74h7--0---------------------------|
E|--00000000000000------------------------------0---------------------------|
    --------------                              -

e|--------------------------------------------------------------------------|
B|--------------------------------------------------------------------------|
G|--------------------------------------------------------------------------|
D|--0-3-2-0-1-2--0-3-2-0-----0-3-2-0-1-2--0-3-2-0-----0---------10\---------|
A|--0-3-2-0-1-2--0-3-2-0-----0-3-2-0-1-2--0-3-2-0-3*--0-(ring)--10\---------|
E|--0-3-2-0-1-2--0-3-2-0-3*--0-3-2-0-1-2--0-3-2-0-----0---------10\---------|
    - - - - - -  - - - -     - - - - - -  - - - -

Chorus
e|--------------------------------------------------------------------------|
B|--------------------------------------------------------------------------|
G|--------------------------------------------------------------------------|
D|--33333333333333--7777777--5555555--33333333333333--7777777--101010101010-|
A|--11111111111111--5555555--3333333--11111111111111--5555555--8-8-8-8-8-8--|
E|--11111111111111--5555555--3333333--11111111111111--5555555--8-8-8-8-8-8--|


e|--------------------------------------------------------------------------|
B|--------------------------------------------------------------------------|
G|--------------------------------------------------------------------------|
D|--7777777--5555555---0----------Pick Slide--------------------------------|
A|--5555555--3333333---0-(ring)---------------------------------------------|
E|--5555555--3333333---0----------------------------------------------------|


e|--------------------------------------------------------------------------|
B|--------------------------------------------------------------------------|
G|----1212h13p-/171514---1212h13p-/-17151410-/121212121212-141414-15--------|
D|--0------------------0----------------------------------------------(x2)--|
A|--0------------------0----------------------------------------------------|
E|--0------------------0----------------------------------------------------|


e|---------------------------------------------------------------------------|
B|---------------------------------------------------------------------------|
G|---------------------------------------------------------------------------|
D|---------------------------------------------------------------------------|
A|---------------------------------------------------------------------------|
E|---------------------------------------------------------------------------|


************************************

-  Palm Mute
h  Hammer on
p  Pull off
/  Slide Up
\  Slide Down
b  Bend
*  Harmonics

************************************
Tap to rate this tab
 
# A B C D E F G H I J K L M N O P Q R S T U V W X Y Z