Song name
# A B C D E F G H I J K L M N O P Q R S T U V W X Y Z

Misc Unsigned Bands - Deep Water Shrimp - Sound 1 tab

Intro (distortion)/verse (clean)
 |------------------------------------------------------|
O|------------------------------------------------------|
 |------------------------------------------------------|
O|-2-2-2-2-2-2-2-2---5-5-5-5-5-5-5-5---4-4-4-4-4-4-4-4--|
 |-2-2-2-2-2-2-2-2---5-5-5-5-5-5-5-5---4-4-4-4-4-4-4-4--|
 |-0-0-0-0-0-0-0-0---3-3-3-3-3-3-3-3---2-2-2-2-2-2-2-2--|
    [p.m..] [p.m..]   [p.m..] [p.m..]   [p.m..] [p.m..]


A.
|-----------------|
|-----------------|O
|-----------------|
|-7-7-7-7-7-7-7-7-|O
|-7-7-7-7-7-7-7-7-|
|-5-5-5-5-5-5-5-5-|
   [p.m..] [p.m..]

B.
|---------|
|---------|
|---------|
|-77777777|
|-77777777|
|-55555555|


Chorus (distortion)
 |------------------------------------------------------|
O|------------------------------------------------------|
 |------------------------------------------------------|
O|-22222222-55555544444444-77777777-11111101010101------|
 |-22222222-55555544444444-77777777-11111101010101------|
 |-00000000-33333322222222-55555555-99999888888888------|

Solo
 trem...
|-0---------------3---------2---------------5---------------9--------8-----------------|
|--------------------------------------------------------------------------------------|
|--------------------------------------------------------------------------------------|
|--------------------------------------------------------------------------------------|
|--------------------------------------------------------------------------------------|
|--------------------------------------------------------------------------------------|

trem...
|-12--------------15--------14--------------17--------------21-------20----------------|
|--------------------------------------------------------------------------------------|
|--------------------------------------------------------------------------------------|
|--------------------------------------------------------------------------------------|
|--------------------------------------------------------------------------------------|
|--------------------------------------------------------------------------------------|

Outro
  E               G         F#5             A               C#5      C
trem..
|-0---------------3---------2---------------0---------------4--------0---------------0-|
|-0---------------0---------2---------------2---------------5--------1---------------0-|
|-1---------------0---------3---------------2---------------6--------0---------------1-|
|-2---------------0---------4---------------2---------------6--------2---------------2-|
|-2---------------2---------4---------------0---------------4--------3---------------2-|
|-0---------------3---------2---------------0---------------0--------0---------------0-|

Intro x2
Verse x2
Chorus x2
Verse x2
Chorus x2
Solo x1
Outro x2
Tap to rate this tab
 
# A B C D E F G H I J K L M N O P Q R S T U V W X Y Z