Song name
# A B C D E F G H I J K L M N O P Q R S T U V W X Y Z

Misc Unsigned Bands - Sadgasm - Politically Incorrect tab

Verse
e|----------------------|----------------------|
h|----------------------|----------------------|
g|----------------------|----------------------|
d|--333333-66-77777777--|--333333-77-66666666--|
a|--333333-66-77777777--|--333333-77-66666666--|
e|--111111-44-55555555--|--111111-55-44444444--|

Chorus
e|----------------------|----------------------|
h|----------------------|----------------------|
g|--6----7b-------------|----------------------|
d|--6-77-7b--------3x---|--66666666------------|
a|--4-77-5b-------------|--66666666------------|
e|----55----------------|--44444444------------|
Tap to rate this tab
 
# A B C D E F G H I J K L M N O P Q R S T U V W X Y Z