Misc Unsigned Bands - Go Ichinose - Pokemon Center tab

e-------5-3-2-0------------2-0-----2--|
h-3---3---------2----2---2-----2-3----|
g---2------------------2--------------| x2
d-------------------------------------|
a-------------------------------------|
e-------------------------------------|

e-2---5---3-5-3-2-0-----0---2-3-2-0---|
h---------------------2-------------3-|
g-------------------------------------|
d-------------------------------------|
a-------------------------------------|
e-------------------------------------|

e-2---5---3-2-3-5-7---5--3-2-3---2-3-2-0---|
h----------------------------------------3-|
g------------------------------------------|
d------------------------------------------|
a------------------------------------------|
e------------------------------------------|
Tap to rate this tab
 
# A B C D E F G H I J K L M N O P Q R S T U V W X Y Z