Misc Unsigned Bands - A Step Ahead - Against All Odds tab

www.myspace.com/astepaheadmusic

 Bass/Guitar 1

 Intro repeat 4 times 
e|---------------------------------|
B|---------------------------------|
G|---------------------------------|
D|---------------------------------|
A|---5-----------------------------|
d|----7-5-555-555--9-7-0-000-000---|

 Verse Note-picking pattern changes half way through.
e|-------------------------------------------|
B|-------------------------------------------|
G|-------------------------------------------|
D|-------------------------------------------|
A|-------------------------------------------|
d|---0-0000000000-7-5-0-5-5555555555-44------|

 Chorus 2X
e|-------------------------------------------|
B|-------------------------------------------|
G|-------------------------------------------|
D|-------------------------------------------|
A|-----555-----------------------------------|
d|---0----7-5-55555555-9-999999-7-00000000---|
  
Second part of Chorus 2X
e|--------------------------------------------|
B|--------------------------------------------|
G|--------------------------------------------|
D|--------------------------------------------|
A|--------------------------------------------|
d|----9-999999-7-5-555-7-7777777-5-00000000---|

Post Chorus
e|-----------------------------------|
B|-----------------------------------|
G|-----------------------------------|
D|-----------------------------------|
A|--5/7/5----------------------------|
d|-------0-0-0000-00-00-0-0-0000-0---|


Bridge 2X
e|---------------------------------|
B|---------------------------------|
G|-----7------------7--------------|
D|---------7----------7------------|
A|---------------------------------|
d|--0-5-0-5-0-5-0--5-0-5-4-2-0-----|
Tap to rate this tab
 
# A B C D E F G H I J K L M N O P Q R S T U V W X Y Z