Song name
# A B C D E F G H I J K L M N O P Q R S T U V W X Y Z

Misc Unsigned Bands - Overlight - Alone tab

Artist : Overlight
Song : Alone
Album : A Cold Day In Hell
Tuning : B-F#-B-E-G#-C#

Guitar 1 - Rhythm
Guitar 2 - Lead

INTRO/CHORUS
Guitar 1 - Dirty
C#|--------------------------------------------------|
G#|--------------------------------------------------|
E |--------------------------------------------------|
B |--12-12-12-12-12-11-11-11-7--7--7--7--7--9--9--9--|
F#|--9--9--9--9--9--9--9--9--5--5--5--5--5--7--7--7--|
B |--9--9--9--9--9--9--9--9--5--5--5--5--5--7--7--7--| X4

INTRO/CHORUS
Guitar 2 - Dirty w/reverb & delay
C#|----------------------------|--------------------------|
G#|----------------------------|--------------------------|
E |--11-11-11-11-6--6--7--9----|--11-11-12-11-6--6--7--4--|
B |--x--x--x--x--x--x--x--x----|--x--x--x--x--x--x--x--x--|
F#|--9--9--9--9--4--4--5--7----|--9--9--10-9--4--4--5--4--|
B |--------------------------X3|--------------------------|

VERSE/PRE-CHORUS
Guitar 1 - Clean w/reverb & delay
C#|--7*------|||------------------------------|--------------------|
G#|------7*--|||------------------------------|--------------------|
E |----------|||------------------------------|--------------------|
B |----------|||-----12--11-----------12------|----9---------11----|
F#|----------|||-------------12-----------11--|-------9--12-----9--|
B |----------|||--9----------------9----------|--9-----------------|

PRE-CHORUS/INTERLUDE/BRIDGE
Guitar 2 - Dirty w/reverb & (closed) wah
C#|-------------------------------------------|
G#|-------------------------------------------|
E |-------------------------------------------|
B |------------------12-12-12-11-11-11--------|
F#|--9-9-9-9-9-9-9-9-------------------12-12--|
B |-------------------------------------------|X2

INTERLUDE
Guitar 1 - Clean w/reverb, delay & phaser
C#|--------5-----------|--------5-----------|
G#|----0------0---0----|----0------0---0----|
E |------4------4------|------4------4------|
B |--4-----------------|--5-----------------|
F#|--------------------|--------------------|
B |------------------X4|------------------X4|

BRIDGE
Guitar 1 & 2 - Dirty
C#|---------|-------|-------|
G#|---------|-------|-------|
E |---------|-------|-------|
B |--11-11--|--5-5--|--7-7--|
F#|--9--9---|--5-5--|--5-5--|
B |--9--9---|--5-5--|--5-5--|
Tap to rate this tab
 
# A B C D E F G H I J K L M N O P Q R S T U V W X Y Z