Misc Unsigned Bands - Better Left Untaimed - Destroy The Fire tab

drop B: b,f#,b,e,g#,c#
h= hamer on
p=pull off
x=palm mute
/= slide up

intro
[--------------------------------------------------------------------------]
[--------------------------------------------------------------------------]
[--------------------------------------------------------------------------]
[--------------------------------------------------------------------------]
[---------1h3----------1h3---------1h3p1h3/5----------1h3---------1h3------]
[---x0-x0-------x0-x0---------x0-x0-------------x0-x0-------x0-x0----------]


[------------------------------------]
[------------------------------------]  play 2 times 
[------------------------------------]
[------------------------------------]
[--------1h3p1h3/5--3----------------]
[-x0-x0------------------------------]

cource
[--------------------------------------------------------------------------]
[--------------------------------------------------------------------------]
[------------------------------------------------5-------------------------]
[----------3--------5---------3-3-3--------------5---0---5-5--3------------]
[----------3--------5---------3-3-3------0--0----3---0---5-5--3------------]
[----x0-x0-3--x0-x0-5--x0-x0--3-3-3-----x0-x0--------0---5-5--3------------]

[--------------------------------------------------------------------------]
[--------------------------------------------------------------------------]
[----------------------------------------------5---------------------------]
[---------3-------3-------3h5--------3---------5---0---5-5--3--------------]
[---------3-------3-------3h5--------3---------3---0---5-5--3--------------]
[---x0-x0-3-x0-x0-3-x0-x0-3h5--x0-x0-3--x0-x0------0---5-5--3--x0-x0-------]





[--------------------------------------------------------------------------]
[--------------------------------------------------------------------------]
[--------------------------------------------------------------------------]
[--7h8---------5h7--------3h5--------2h3----------7h8---------5h7----------]
[--7h8---------5h7--------3h5--------2h3----------7h8---------5h7----------]
[--7h8--x0-x0--5h7--x0-x0-3h5--x0-x0-2h3---x0-x0--7h8---x0-x0-5h7----------]

[--------------------------]
[--------------------------]
[--------------------------]
[--------5-------7-7/-5----] play 2 times
[--------5-------7-7/-5----]
[--x0-x0-5-x0-x0-5-5/-3----]


slow middle

[---------------------------------]
[---------------------------------]
[---------------------------------]  play 3 times then go right into the
[--0-----1---------------------3--]
[--0-----1--------1-3p1h3p1----3--]       second into.
[--0-----1----1-3--------------3--]


second intro


[--------------------------------------------------------------------------]
[--------------------------------------------------------------------------]
[--------------------------------------------------------------------------]
[--------------------------------------------------------------------------]
[---------1h3----------1h3---------1h3p1h3/5----------1h3---------1h3------]
[---x0-x0-------x0-x0---------x0-x0-------------x0-x0-------x0-x0----------]


[------------------------------------]
[------------------------------------]  play 2 times 
[------------------------------------]
[------------------------------------]
[--------1h3p1h3/5--3----------------]
[-x0-x0------------------------------]


back into cource


[--------------------------------------------------------------------------]
[--------------------------------------------------------------------------]
[------------------------------------------------5-------------------------]
[----------3--------5---------3-3-3--------------5---0---5-5--3------------]
[----------3--------5---------3-3-3------0--0----3---0---5-5--3------------]
[----x0-x0-3--x0-x0-5--x0-x0--3-3-3-----x0-x0--------0---5-5--3------------]

[--------------------------------------------------------------------------]
[--------------------------------------------------------------------------]
[----------------------------------------------5---------------------------]
[---------3-------3-------3h5--------3---------5---0---5-5--3--------------]
[---------3-------3-------3h5--------3---------3---0---5-5--3--------------]
[---x0-x0-3-x0-x0-3-x0-x0-3h5--x0-x0-3--x0-x0------0---5-5--3--x0-x0-------]





[--------------------------------------------------------------------------]
[--------------------------------------------------------------------------]
[--------------------------------------------------------------------------]
[--7h8---------5h7--------3h5--------2h3----------7h8---------5h7----------]
[--7h8---------5h7--------3h5--------2h3----------7h8---------5h7----------]
[--7h8--x0-x0--5h7--x0-x0-3h5--x0-x0-2h3---x0-x0--7h8---x0-x0-5h7----------]

[--------------------------]
[--------------------------]
[--------------------------]
[--------5-------7-7/-5----] play 2 times then slow intro to the end of 
[--------5-------7-7/-5----]   song.
[--x0-x0-5-x0-x0-5-5/-3----]


[---------------------------------]
[---------------------------------]
[---------------------------------]  play 2 times then fade out..
[--0-----1---------------------3--]
[--0-----1--------1-3p1h3p1----3--]       
[--0-----1----1-3--------------3--]

end of the song!
have fun playing it i made it upp.
Tap to rate this tab
 
# A B C D E F G H I J K L M N O P Q R S T U V W X Y Z