Misc Unsigned Bands - Skidbladnir - Shadowphobia tab

Skidbladnir - Shadowphobia (1999)

[1]
 |G1+2               x2||
e|--2---2----6---6-----||
B|--2---2----6---6-----||
G|--2---2----6---6--6--||
D|--4------4/8------8--||
A|--4------4/8------8--||
E|--2------2/6------6--||
 |

[2]
 |G1+2                                                         x2||
e|---------------------------------------------------------------||
B|---------------------------------------------------------------||
G|--------------------------------3------------------------------||
D|5-----7-----7---5-----5-----5---2-----2-----2---1-----1-----1--||
A|7-----7-----7---3-----3-----3---3-3-3-3-3-3-3-3-2-2-2-2-2-2-2-2||
E|--0-0---0-0---0-3-3-3-3-3-3-3-3--------------------------------||
 |  . .   . .   .   . .   . .   .   . .   . .   .   . .   . .   .

[3]
 |G1                                                           x4||
e|---------------------------------------------------------------||
B|---------------------------------------------------------------||
G|--------------------------------3------------------------------||
D|5-----7-----7---5-----5-----5---2-----2-----2---1-----1-----1--||
A|7-----7-----7---3-3-3-3-3-3-3-3-3-3-3-3-3-3-3-3-2-2-2-2-2-2-2-2||
E|--0-0---0-0---0-3-----3-----3----------------------------------||
 |  . .   . .   .   . .   . .   .   . .   . .   .   . .   . .   .||
 |                                                               ||
 |G2                                                             ||
e|---------------------------------------------------------------||
B|---------------------------------------------------------------||
G|--------------------------------3-----3-----3---1---1-1-2-2-4-4||
D|5-----7-----7---5-----5-----5---2-----2-----2---1-1------------||
A|7-----7-----7---3-3-3-3-3-3-3-3-3-3-3-3-3-3-3-3-2-2------------||
E|--0-0---0-0---0-3-3-3-3-3-3-3-3--------------------------------||
 |. .     . .   .   . .   . .   .   . .   . .   .     <3> <3> <3> 

[4]
 |G1                                                           x4||
e|---------------------------------------------------------------||
B|---------------------------------------------------------------||
G|--------------------------------5-----5-----5---2-----2-----2--||
D|5-----7-----7---9-----9-----9---5-----5-----5---4-----4-----4--||
A|7-----7-----7---7-----7-----7---3-3-3-3-3-3-3-3-5-5-5-5-5-5-5-5||
E|--0-0---0-0---0-7-7-7-7-7-7-7-7--------------------------------||
 |  . .   . .   .   . .   . .   .   . .   . .   .   . .   . .   .||
 |                                                                |
 |G2                                                              |
e|--------------------------------------------------------------- |
B|--------------------------------------------------------------- |
G|--------------------------------5-----5-----5---7-----7-----7/8/|
D|5-----7-----7---9-----9-----9---5-----5-----5---7-----7-----7/8/|
A|7-----7-----7---7-----7-----7---3-3-3-3-3-3-3-3-5-5-5-5-5-5-5/6/|
E|--0-0---0-0---0-7-7-7-7-7-7-7-7-------------------------------- |
 |  . .   . .   .   . .   . .   .   . .   . .   .   . .   . .   . |
 |
 |G2
 |---------------------------------------------------------------||
 |---------------------------------------------------------------||
 |9-9\----------------------------5-----5-----5---2-----2-----2--||
 |9-9\------------9-----9-----9---5-----5-----5---4-----4-----4--||
 |7-7\2-2---2-2-2-7-----7-----7---3-3-3-3-3-3-3-3-5-5-5-5-5-5-5-5||
 |----0-0---0-0-0-7-7-7-7-7-7-7-7--------------------------------||
 |    . .   . . .   . .   . .   .   . .   . .   .   . .   . .   .||

[5]
 |G1+2                                                         x2||
e|---------------------------------------------------------------||
B|---------------------------------------------------------------||
G|4-----4-----4---4-----4-----4-5-4-----4-----4---4-----4-----4--||
D|5-----5-----5---5-----5-----5-5-4-----4-----4---4-----4-----4--||
A|3-3-3---3-3---3-3-3-3---3-3-3-3-2-2-2---2-2---2-2-2-2---2-2---2||
E|---------------------------------------------------------------||
 |  . .   . .   .   . .   . .       . .   . .   .   . .   . .   .||
    <3>   <3>       <3>   <3>       <3>   <3>       <3>   <3>

[6]
 |G1+2                                                           |
e|---------------------------------------------------------------|
B|---------------------------------------------------------------|
G|---------------------------------------------------------------|
D|----------------7-----7-----7---5-----5-----5---4-----4-----4-5|
A|2-----2-----2---3-3-3-3-3-3-3-3-3-3-3-3-3-3-3-3-2-2-2-2-2-2-2-2|
E|0-0-0-0-0-0-0-0------------------------------------------------|
 |  . .   . .   .   . .   . .   .   . .   . .   .   . .   . .    |


 |G1+2                                                           ||
e|---------------------------------------------------------------||
B|---------------------------------------------------------------||
G|---------------------------------------------------------------||
D|----------------7-----7-----7---5-----5-----5---9-----9-----9--||
A|----------------3-3-3-3-3-3-3-3-3-3-3-3-3-3-3-3-5-5-5-5-5-5-5-5|| 
E|0-0-0-0-0-0-0-0------------------------------------------------||
 |  . .   . .   .   . .   . .   .   . .   . .   .   . .   . .   .||

[7]
 |G1+2                   x3||
e|-------------------------||
B|-------------------------||
G|-----5-------------------||
D|7--7-5---h-p-h-p-h-h-p---||
A|7--7-3--6-7-6-7-6-7------||
E|5--5----------------8-7--||
 |   .                     ||

[8]
 |G1+2                   x1||
e|-------------------------||
B|-------------------------||
G|-------------------------||
D|--5-5-5-5--6-6-6-6-------||
A|--5-5-5-5--6-6-6-6-------||
E|--3-3-3-3--4-4-4-4-------||
 |  . . . .  . . . .       ||


[9]
 |G1+2                     x4||
e|---------------------------||
B|---------------------------||
G|---------------------------||
D|-----------10x-9-----------||
A|7-----7----10x-9-9-7/9-9-9-||
E|5-5-5-8-8-8-8x-7-7-5/7-7-7-||
 |  . .   . .      .     . . ||

[10]
 |G1+2               x2||
e|--0---0----4---4-----||
B|--0---0----4---4-----||
G|--0---0----4---4--4--||
D|--2------2/6------6--||
A|--2------2/6------6--||
E|--0------0/4------4--||
 |
Timing: [1] [2] [3] [4] [5] [6] [7] [8] [3] [4] [5] [6] [9] [10]

Tabbed by Viracocha (2010) music made by Przemek, Piotrek, Bartek i Sobieslaw
Tap to rate this tab
 
# A B C D E F G H I J K L M N O P Q R S T U V W X Y Z