Song name
# A B C D E F G H I J K L M N O P Q R S T U V W X Y Z

Misc Unsigned Bands - Skiebladnir - Maggy tab

Skidbladnir - Maggy the whore (Magda chvj!) (2000)

[0]
 | Bass intro                                                    x2||
G|--------------------------------------------------------------3--||
D|-----------------------------------------------------------1-----||
A|--------2--3--2---------2--3--2---------2--3--2----0---3---------||
E|-0---3-----------0---3-----------0---3---------------------------||


[1]
 |G1 (clean)                                                     x2||
e|-----------------------------------------------------------------||
B|-----------------------------------------------------------------||
G|---------0---------------0---------------0---------------0----5-4||
D|-------5---5---4-------5---5---4-------5---5---4-------2---2-----||
A|-----7-------5-------7-------5-------7-------5-----3-------------||
E|-0---------------0---------------0-------------------------------||

[2]
 |G1 (dist)           x8||
e|----------------------||
B|----------------------||
G|----------------------||
D|---2---2-2---4-2-4----||
A|---2---2-2---4-2-4----||
E|---0---0-0---2-0-2----||
 |pm     . .     .

[3]
 |G1 (dist)                              x8||
e|-----------------------------------------||
B|-----------------------------------------||
G|-----------------------------------------||
D|------------------5\4--2---2--4--5--3----||
A|---2---2--5---5---5\4--0---0--2--3--1--3-||
E|---0---0--3---3---3\2------------------1-||
 |pm     .      .            .     .  .  .

[4]
 |G1 (dist)   x4||
e|--------------||
B|--------------||
G|--------------||
D|--2-2-2-2---3-||
A|----------1---||
E|-0-0-0-0------||


[5]
 |G1 (heavy dist)           x4||
e|----------------------------||
B|----------------------------||
G|--9-------------------------||
D|--9-------------------------||
A|--7-------------------------||
E|--7-------------------------||
 |  ..let ring ......         ||
 |                            ||
 |                            ||
 |G2                          ||
e|----------------------------||
B|---------------7------------||
G|--9---------9-----9---------||
D|--------10------------10----||
A|--7-------------------------||
E|----------------------------||
 |                            ||


Timing: [0] [1] [2] [1] [2] [3] [4] [3] [5] [2]

Tabbed by Viracocha (2010) music made by Piotrek, Bartek, Sobieslaw i Przemek
Tap to rate this tab
 
# A B C D E F G H I J K L M N O P Q R S T U V W X Y Z