Misc Unsigned Bands - Skidbladnir - Beyond Horizon tab

Skidbladnir - Beyond horizon (1998)


[1]
 |G1                                               x4||
e|--------------------------|------------------------||
B|--------------------------|------------------------||
G|--9-9-7-5-5-5-------4-4---|9-9-7-5-5-5-1010107-7-7-||
D|--7-7-7-7-7-7---7---6-6-6-|7-7-7-7-7-7-7-7-7-7-7-7-||
A|--0-0---------0-8-0-7-7-7-|0-0---------8-8-8-5-5-5-||
E|--------------------------|------------------------||
 |                                                   ||
 |                                                   ||
 |G2                                                 ||
e|--------------------------|------------------------||
B|--------------------------|------------------------||
G|--------------------------|------------------------||
D|--------------------------|------------------------||
A|--7-7-5-3-3-3-5-3-5-2-2-2-|7-7-5-3-3-3-8-8-8-5-5-5-||
E|--5-5-5-5-5-5-5-5-5-4-4-4-|5-5-5-5-5-5-6-6-6-3-3-3-||
    . . . . . . . . . . . .  . . . . . . . . . . . .             
 

[2]
 |G1                      x4||
e|--------------------------||
B|--------------------------||
G|--9-9-----------9-107-7-7-||
D|--7-7-----7---------------||
A|--0-0-8-7-0-8-7-7-8-5-5-5-||
E|--------------------------||
 |                          ||
 |                          ||
 |G2                        ||
e|--------------------------||
B|--------------------------||
G|--------------------------||
D|--------------------7\\\--||
A|--7--7--7-7-7--2-3--5\\\--||
E|--5--5--5-5-5--0-1--------||
    .  .  . . .  . .

[3]
 |G1                                                                          x4||
e|-----------------------------------------|------------------------------------||
B|-----------------------------------------|------------------------------------||
G|-----------------------------------------|------------------------5-4-2--2-2-2||
D|--2-----------------------------3--3-3-3-|--2---------------------3-2-0--0-0-0||
A|--0--3-3-3--2---------3--3-3-3--1--1-1-1-|--0--3-3-3-2---------3x-------------||
E|------------0--3-3-3--1--1-1-1-----------|-----------0--3-3-3--1x-------------||
 |     . . .     . . .     . . .    . . .        . . .    . . .  .              ||
 |                                                                              ||
 |G2                                                                / 3 \       ||
e|-----------------------------------------|------------------------------------||
B|-----------------------------------------|------------------------------------||
G|--------------------------------10-101010|------------------------109-7--7-7-7||
D|--7--101010-----------10-101010-8--8-8-8-|--7--101010-------------------------||
A|--0---------7--101010-8--8-8-8-----------|--0--------7--101010-8--------------||
E|------------0----------------------------|-----------0------------------------||


[4]
 |G1+2                                   x4||
e|-----------------------------------------||
B|-----------------------------------------||
G|-----------------------------------------||
D|--2---------7-------------------5--------||
A|--0--2-3----5--7-8----7--2-3----3--5-7-8-||
E|-----0-1-------5-6----5--0-1-------3-5-6-||
 |     .         .         .         .     

[5]
 |G1+2                                   x4||
e|-----------------------------------------||
B|-----------------------------------------||
G|-----------------------------------------||
D|--2-2--------7-5------2-2-------5--------||
A|--0-02-3x----5-57-8\\-0-02-3----3--5-7-8-||
E|-----0-1x-------5-6\\----0-1-------3-5-6-||
 |  <3>. .     <3>. .   <3>. .       . .      

[6]
 |G1+2                                                                                x4||
e|--------------------------------------------------------------------------------------||
B|--------------------------------------------------------------------------------------||
G|--------------------------------------------------------------------------------------||
D|--------------------------------------------------------------------------------------||
A|--7-7--5-5--7-7--5-5--7-7--5-5--7-7--5-5--8-8--7-7--8-8--7-7--13-13-13-13--15-15-15-15||
E|--5-5--3-3--5-5--3-3--5-5--3-3--5-5--3-3--6-6--5-5--6-6--5-5--11-11-11-11--13-13-13-13||
 |  . .  . .  . .  . .  . .  . .  . .  . .  . .  . .  . .  . .   .  .  .  .   .  .  .  .

[7]
 |G1+2     x1||
e|-----------||
B|-----------||
G|-----------||
D|--2-2------||
A|--0-0-2-3x-||
E|------0-1x-||
 |  . . . .    

[8]
 |G1+2     x1||
e|-----------||
B|-----------||
G|-----------||
D|--2--------||
A|--0--------||
E|-----------||
 |  ...let ring   


Timing: [1] [2] [3] [4] [1] [2] [3] [4] [5] [6] [7] [3] [8]

Tabbed by Viracocha (2010) music made by Piotrek
Tap to rate this tab
 
# A B C D E F G H I J K L M N O P Q R S T U V W X Y Z