Song name
# A B C D E F G H I J K L M N O P Q R S T U V W X Y Z

Misc Unsigned Bands - Jeff Ashura - The Hillbilly Song tab

Intro

--33-33-0-1-2-33-33-2-1-0----|
--33-33-------33-33----------|
-----------------------------|      x2
-----------------------------|
-----------------------------|
-----------------------------|

This is the only verse


--33-33-0-1-2-33-33-2-1-0----|
--33-33-0-1-2-33-33-2-1-0----|
--00-00-------00-00----------|      As many times as you please
--00-00-------00-00----------|
-----------------------------|
-----------------------------|


-Jeff
Tap to rate this tab
 
# A B C D E F G H I J K L M N O P Q R S T U V W X Y Z