Misc Unsigned Bands - Astronautalis - Down And Out In The Bold New City Of The South tab

-----------------------------------------------------------------------------
     Down And Out In The Bold New City Of The South - Astronautalis
-----------------------------------------------------------------------------
Tabbed by: Ronan Waters
Email: ronan-waters@hotmail.com

Tuning: Standard

e|-------7-------------------7----7----5p4--------------------------|
B|----5-----5-----5-------5-----------------5-----------------------|
G|-4-----------4-----5/6--------------------------------------------| X2
D|------------------------------------------------------------------|
A|------------------------------------------------------------------|
E|------------------------------------------------------------------|

e|-------7-------------------7-------------------7-------------7---7--5p4---|
B|----5-----5-----5-------5-----5-----5-------7-----7-------5--------------5|
G|-4-----------4-----5/6-----------6-----6/8-----------8\6------------------|
D|--------------------------------------------------------------------------|
A|--------------------------------------------------------------------------|
E|--------------------------------------------------------------------------|




************************************

| /   slide up
| \   slide down
| h   hammer-on
| p   pull-off
| ~   vibrato
| +   harmonic
| x   Mute note
| b   Bend
| pb  Pre-bend
| br  Bend release
| pbr Pre-bend release
| brb Bend release bend

************************************
Tap to rate this tab
 
# A B C D E F G H I J K L M N O P Q R S T U V W X Y Z