Song name
# A B C D E F G H I J K L M N O P Q R S T U V W X Y Z

Misc Unsigned Bands - With Oceans Below - Eenie Meenie tab

Song: Eenie Meenie (Cover)
Artist: With Oceans Below
Tab By: Me :P

Tuning: C# G# C# F# A# D#  Or  Db Ab Db Gb Bb Eb (Drop C# or Drop Db)


This is ma 1st Tab and nobody had this up so i decided 2 give it a try
Great Song. Great Band.
Srry if theres a bunch of messes :S 

Hope this Helps Some1

Email me any suggestions at: josheil9495@gmail.com 
NO SPAM 

Btw none of the strumming pattern is Necessarily right :P


Intro:
|--------------------------------------------------------------------------|
|--------------------------------------------------------------------------|
|--------------------------------------------------------------------------|
|--0~---------------5~--------------0~-------------7~------------(X2)------|
|--0~---------------5~--------------0~-------------7~----------------------|
|--0~---------------5~--------------0~-------------7~----------------------|


Verse 1
(Weird Palm muted and Un-palm muted pattern)
(Figure it out I don't realyy know how 2 write it out haha :P)
|---------------------------------------------------------------------|
|---------------------------------------------------------------------|
|---------------------------------------------------------------------|
|--0-0-0-0-0-0-0-5-5-5-5-5-5-5-5-0-0-0-0-0-0-0-0-7-7-7-7-7-7-7-7------|
|--0-0-0-0-0-0-0-5-5-5-5-5-5-5-5-0-0-0-0-0-0-0-0-7-7-7-7-7-7-7-7------|
|--0-0-0-0-0-0-0-5-5-5-5-5-5-5-5-0-0-0-0-0-0-0-0-7-7-7-7-7-7-7-7------|

|------------------------------------------------------|
|------------------------------------------------------|
|------------------------------------------------------|
|--0-0-0-0-0-0-0-5-5-5-5-5-5-5-5-0-0-0-0-0-0-0-0-7-----|
|--0-0-0-0-0-0-0-5-5-5-5-5-5-5-5-0-0-0-0-0-0-0-0-7-----|
|--0-0-0-0-0-0-0-5-5-5-5-5-5-5-5-0-0-0-0-0-0-0-0-7-----|


Chorus
Guitar 1
|--10-10-10-10-10-10-10-10-10-5-5-3-3-3-3-3-3-3-3-3-|
|---------------------------------------------------|
|---------------------------------------------------| 
|---------------------------------------------------|     
|---------------------------------------------------|
|---------------------------------------------------|

|-10-10-10-10-10-10-10-10-10-9-9-17-17-17-17-17-17-17-17-17-17--| Play 2wice
|---------------------------------------------------------------| (Dont
|---------------------------------------------------------------| realyy
|---------------------------------------------------------------|  know
|---------------------------------------------------------------| But sounds
|---------------------------------------------------------------|  Close)


I don't know the 2nd part of the solo but if u have any suggestions let me know 
So jsut play 2nd Gutiar for rest of Chorus


Guitar 2
|------------------------------------|
|----------------------------(X2)----|
|------------------------------------|
|--00000000555555550000000077777777--|
|--00000000555555550000000077777777--|
|--00000000555555550000000077777777--|


Breakdown 1
(Weird Palm Mute thingy again)
|-------------------------------------------------------------------------|
|-------------------------------------------------------------------------|
|-------------------------------------------------------------------------|
|-0--0-0-0--0-0--0-0--0--0-0-0-7-7--7-7-0--0-0-0--0-0--0-0--0--0-0-0--7-7-|
|-0--0-0-0--0-0--0-0--0--0-0-0-7-7--7-7-0--0-0-0--0-0--0-0--0--0-0-0--7-7-|
|-0--0-0-0--0-0--0-0--0--0-0-0-7-7--7-7-0--0-0-0--0-0--0-0--0--0-0-0--7-7-|


Verse 2
((Weird Palm Muteing))
|-------------------------------------------------------------------|
|-------------------------------------------------------------------|
|-------------------------------------------------------------------|
|--0-0-0-0-0-0-0-5-5-5-5-5-5-5-5-0-0-0-0-0-0-0-0-7-7-7-7-7-7-7-7----|
|--0-0-0-0-0-0-0-5-5-5-5-5-5-5-5-0-0-0-0-0-0-0-0-7-7-7-7-7-7-7-7----|
|--0-0-0-0-0-0-0-5-5-5-5-5-5-5-5-0-0-0-0-0-0-0-0-7-7-7-7-7-7-7-7----|

|-----------------------------------------------------|
|-----------------------------------------------------|
|-----------------------------------------------------|
|--0-0-0-0-0-0-0-5-5-5-5-5-5-5-5-0-0-0-0-0-0-0-0-7----|
|--0-0-0-0-0-0-0-5-5-5-5-5-5-5-5-0-0-0-0-0-0-0-0-7----|
|--0-0-0-0-0-0-0-5-5-5-5-5-5-5-5-0-0-0-0-0-0-0-0-7----|


Chorus
Guitar 1
|--10-10-10-10-10-10-10-10-10-5-5-3-3-3-3-3-3-3-3-3--| Play whole thing X2)
|----------------------------------------------------|
|----------------------------------------------------|
|----------------------------------------------------|
|----------------------------------------------------|
|----------------------------------------------------|

|--10-10-10-10-10-10-10-10-10-9-9-17-17-17-17-17-17-17-17-17-17--|
|----------------------------------------------------------------|
|----------------------------------------------------------------| 
|----------------------------------------------------------------|
|----------------------------------------------------------------|
|----------------------------------------------------------------|

Guitar 2
|------------------------------------|
|------------------------------------|
|------------------------------------|
|--00000000555555550000000077777777--|
|--00000000555555550000000077777777--|
|--00000000555555550000000077777777--|


Breakdown 2
((Palm Mute Thingy))
|-------------------------------------------------------------------------|
|-------------------------------------------------------------------------|
|-------------------------------------------------------------------------|
|-0--0-0-0--0-0--0-0--0--0-0-0------------0--0-0-0--0-0--0-0--0--00000000-|
|-0--0-0-0--0-0--0-0--0--0-0-0------------0--0-0-0--0-0--0-0--0--00000000-|
|-0--0-0-0--0-0--0-0--0--0-0-0--7-7--0-0--0--0-0-0--0-0--0-0--0--00000000-|


Interludeish Thing :P
|--------------------------------------------------------------------------|
|--------------------------------------------------------------------------|
|--------------------------------------------------------------------------|
|--0~---------------5~--------------0~-------------7~------------(X2)------|
|--0~---------------5~--------------0~-------------7~----------------------|
|--0~---------------5~--------------0~-------------7~----------------------|


Chorus
Guitar 1
|--10-10-10-10-10-10-10-10-10-5-5-3-3-3-3-3-3-3-3-3--|
|----------------------------------------------------|
|----------------------------------------------------| ((1once this time))
|----------------------------------------------------|
|----------------------------------------------------|
|----------------------------------------------------|

|--10-10-10-10-10-10-10-10-10-9-9-17-17-17-17-17-17-17-17-17-17--|
|----------------------------------------------------------------|
|----------------------------------------------------------------|  
|----------------------------------------------------------------|
|----------------------------------------------------------------|
|----------------------------------------------------------------|

Guitar 2
|------------------------------------|
|------------------------------------|
|------------------------------------|
|--00000000555555550000000077777777--|
|--00000000555555550000000077777777--|
|--00000000555555550000000077777777--|


Breakdown 3
(( Palm Muting Thinger))
|------------------------------------------------------|
|------------------------------------------------------|
|------------------------------------------------------|
|--0-0-0--0-0-0-00055555555--0-0-0--0-0-0-00077777777--|
|--0-0-0--0-0-0-00055555555--0-0-0--0-0-0-00077777777--|
|--0-0-0--0-0-0-00055555555--0-0-0--0-0-0-00077777777--|




END

Not Completely sure about this Btw
But hoping 2 Fix Up and update Complete Solo later sometime (: 




PLEASE COMMENT AND RATE!
Tap to rate this tab
 
# A B C D E F G H I J K L M N O P Q R S T U V W X Y Z