Song name
# A B C D E F G H I J K L M N O P Q R S T U V W X Y Z

Misc Unsigned Bands - Martin Stam - Ez Tab Song tab

e-----------------0---------------------------------------------------------|
b--1------3------------1------3------0--------------1---------------------1-|
g--------------------0-----0------0------0---2----------0------------0------|
d---------------------------------------------------3----------------2------|
a--0------2------3--------------------------------------------3-------------|
e-------------------------------3-------------------------------------------|

------------------------------------------------------------3------|
-----------1--------1----0----------------------0------------------|
--2----------------------------2---0-------0---------0-------------|
------3------------------------------------------------------------|
-------------------------------------------------------------------|
-----------------------------------------3-------------------------|


-----------------0-----------------------------------------------------------|
--1------3------------1------3------0--------------1---------------------1---|
--------------------0-----0------0------0---2----------0------------0--------|
---------------------------------------------------3----------------2--------|
--0------2------3---------------------------------------------3--------------|
-------------------------------3---------------------------------------------|

------------1--------0---------------------------------------------|
--------------------------3---------1--------------------1---------|
--2-------------0-------------0-----------------0------------------|
-------3-------------------------------------2--------2------------|
-----------------------------------------3-------------------------|
----------------------3--------------------------------------------|

Minor Part:
-1------0--------------------------0-----------------------|
----------------3-----1-1------------0---------------0-----|
-----2-----2------2-----------2------------------1---------|
-0---------------------------------------------2-----------|
-----------------------------0-----------------------------|
--------------------------------------------0--------------|

---------1-0-------------------------------3----|
---------------3------1-0--------------0--------|
----2--------------2----------------0-----------|
-0-------------------------------0--------------|
------------------------------------------------|
-------------------------------3----------------|
now end by playing the last line of the first part.
Tap to rate this tab
 
# A B C D E F G H I J K L M N O P Q R S T U V W X Y Z