Misc Unsigned Bands - Veil - I Miss You chords

Highlighted       Show chord diagrams
Title: I miss you (Gt. ver. Aoi to misuzu)
Artist: Veil
From the Anime: Fortune Arterial: Akai Yakusoku


Intro:
I miss you~
G A D  G D A A7

Verse:

E|----------2----------------2--------------------0-----------------2----|
B|--3---3-------3--------3-------3--------2---------2---------2h3p2---3--|
G|----2---2---2---2----2---2---2---2----2---2---0---------4--------------|
D|--0---------------------------------------------------4---4------------|
A|------------------------------------0-------1-------2------------------|
E|-------------------3---------------------------------------------------|
       D                       D         A       A7      Bm

E|----------3--------------------|
B|------0-------0--------2----2--|
G|----0---0---0---0----2---2--0--|
D|----------------------------2--|
A|-------------------0--------0--|
E|--3----------------------------|
      G                  A    A7

D            D         A   A7      Bm
Mabushii kurai e ni kaita jikan na no
            G A A7
Sou ima wa. . . 

D                        A  A7        Bm
Kawarihajimeta Machinami ni me wo sorashi
       G           A
Omoide wa, Tada iu no
        G     D    A
Soko de tomadou dake


Chorus:
       Bm
I miss you
     G            D        A
Omoi wo sono mama dakishimete
       Bm
I miss you
      G          D        A
Kawaranu omoi wo shiritai no
        G
I miss you
       D     A
Negatteru kara

I miss you..

Interlude: G A D  G D A

2nd verse:
D                         A A7       Bm
Miageta sora wa futari daku tenohira yo
        G  A
Toki koete. . . 

D                        A  A7       Bm
Sagashimotometa Hitogomi ni Sugaritsuki
        G          A
"Aitai" to nurete iku
       G   D      A
Hitomi tojite iku no

Chorus:
       Bm
I miss you
      G           D       A
Ima demo anata wo kanjiru yo
       Bm
I miss you
       G          D       A
Asu ni wa aeru to shinjiteru
       G
I miss you
       D     A
Aishiteru kara
            D G D A Bm G A
I miss you..


Chorus:
       Bm
I miss you
     G            D        A
Omoi wo sono mama dakishimete
       Bm
I miss you
      G          D        A
Kawaranu omoi wo shiritai no
        G
I miss you
       D     A
Negatteru kara

I miss you..

Outro: G A D  G D A
Tap to rate this tab
 
# A B C D E F G H I J K L M N O P Q R S T U V W X Y Z