Song name
# A B C D E F G H I J K L M N O P Q R S T U V W X Y Z

Misc Unsigned Bands - Carousel Kings - Two Ghosts Are Better Than One tab

Intro:
D#||--------------------------------------|
A#||--------------------------------------|
G ||--------------------------------------|
C#||--------------------------------------|
G#||--------------------------------------|
C#||--00-5h4h5-00h2h4-00-2h0h2h0----------|

D#||--------------------------------------|
A#||--------------------------------------|
G ||--------------------------------------|
C#||--------------------------------------|
G#||--------------------------------------|
C#||--00-5h4h5-00h2h4-00-7~~--------------|

You repeat variations of this riff over and over for the intro. 

Verse 1:
D#||--------------------------------------|
A#||--------------------------------------|
G ||--------------------------------------|
C#||--0-5-7-------------------------------|
G#||--0-5-7-------------------------------|
C#||--0-5-7-------------------------------|

Figure out the strumming patterns on your own.

Pre-Chorus 1:

D#||--------------------------------------|
A#||--------------------------------------|
G ||----4-4-4-4-4-------75425420----------|
C#||-22-2-2-2-2-2--000--------------------|
G#||-22------------000--------------------|
C#||-22------------000--------------------| x2

repeat intro, then pre-chorus, then the breakdown, which you can figure out by yourself. 

Verse 2:
D#||--------------------------------------|
A#||--------------------------------------|
G ||--------------------------------------|
C#||--0-5-7-------------------------------|
G#||--0-5-7-------------------------------|
C#||--0-5-7-------------------------------| x2

then you repeat the breakdown and clap for yourself. :)
Tap to rate this tab
 
# A B C D E F G H I J K L M N O P Q R S T U V W X Y Z