Misc Unsigned Bands - Dead Cool Dropouts - Green Eyes Make Me Blue tab

~Dead cool dropouts - Green eyes make me blue~


This is my first tab and I hope you like it :) 
Capo 4th 


Intro/verse

e|---0------0------0------0------0h2------|
b|---3------3------3------3------3--------|
g|---0------0------0------2------2--------|  
d|---2------2------0------0------0--------| 
a|---2------3------2----------------------|
e|---0------0------3----------------------|

Chorus

e|---0------0------0------0---------------|
b|---1------3------3------3---------------|
g|---2------0------0------2---------------|  
d|---2------2------0------0---------------| x2
a|---0------3------2----------------------|
e|---0------0------3----------------------|
Tap to rate this tab
 
# A B C D E F G H I J K L M N O P Q R S T U V W X Y Z