Misc Unsigned Bands - The Wrath - Possessed tab

Tuning:Drop C# [C# G# C# F# A# D#]

(Two times clean two times distorted)
D#|-------------------------------------------------- \
A#|-------------------------------------------------- |
F#|-------------------------------------------------- |
C#|--------3--0--------------------3--0-------------- | 4x
G#|-----0--------1--0-----0-----0--------1--0-----0-- |
C#|--0-----------------3-----0-----------------3----- /


 Two times are played at the same time as the first part
 (After two times clean another six times distorted)
D#|-------------------------------------------------- \
A#|-------------------------------------------------- |
F#|-------------------------------------------------- |
C#|-----0--1--0--3--0--1--0-----0--1--0--3--0--1--0-- | x
G#|-------------------------------------------------- |
C#|--0-----------------------0----------------------- /

while 1st verse plays
(This is distorted)
D#|----------------------- \
A#|----------------------- |
F#|----------------------- |  4x
C#|-----0--1--0--3--1--0-- |
G#|----------------------- |
C#|--0-------------------- /        

The verse will come next in a couple weeks. Hope you like it and hope you like the 
band when we start playing.
Tap to rate this tab
 
# A B C D E F G H I J K L M N O P Q R S T U V W X Y Z