Song name
# A B C D E F G H I J K L M N O P Q R S T U V W X Y Z

Misc Unsigned Bands - Brian Dubois - Song 1 tab

Tab by: Brian Dubois
Written by: Brian Dubois
e|-----------------3------------------------| |
B|-0-------2---------2----------------------|   |
G|---2-------2---------0---0----------------|     |
D|-----2-------1-------------2--------------|   |
A|------------------------------------------|      |
E|-------0-------0-------0-----2h3p2-0------|        |
                                                      | x4
e|-----------------3------------------------|        |
B|-0-------2---------2----------------------|     |
G|---2-------2-------------0----------------|   |
D|-----2-------1-------------2--------------|     |
A|-------------------------3---3------------|   |
E|-------0-------0-3---3-5-2---2-3-0--------| |

e|-----------------3------------------------|
B|-0-------2---------2----------------------|
G|---2-------2-------------0----------------|
D|-----2-------1-------------2--------------|
A|-------------------------3---3------------|
E|-------0-------0-3---3-5-2---2-3-5--0-----|

e|-0-0-0-000-0-0-003-3-3-30-----------------|
B|-0-0-0-002-2-2-222-2-2-20-----------------|
G|-2-2-2-222-2-2-220-0-0-000-0-000----------|
D|-2-2-2-221-1-1-110-0-0-002-2-222----------| x8
A|-1-1-1-110-0-0-000-0-0-003-3-333----------|
E|-0-0-0-000-0-0-003-3-3-302-0-320----------|

e|-0-0-0-000-0-0-003-3-3-30-----------------|
B|-0-0-0-002-2-2-222-2-2-20-----------------|
G|-2-2-2-222-2-2-220-0-0-000-0-000-0-0-0----|
D|-2-2-2-221-1-1-110-0-0-002-2-222-2-2-2----| 
A|-1-1-1-110-0-0-000-0-0-003-3-333-3-3-3----|
E|-0-0-0-000-0-0-003-3-3-302-0-320-0-0-0----|

e|-----------------3------------------------| |
B|-0-------2---------2----------------------|   |
G|---2-------2---------0---0----------------|     |
D|-----2-------1-------------2--------------|   |
A|------------------------------------------|      |
E|-------0-------0-------0-----2h3p2-0------|        |
                                                      | x4
e|-----------------3------------------------|        |
B|-0-------2---------2----------------------|     |
G|---2-------2-------------0----------------|   |
D|-----2-------1-------------2--------------|     |
A|-------------------------3---3------------|   |
E|-------0-------0-3---3-5-2---2-3-0--------| |

e|-----------------3------------------------|
B|-0-------2---------2----------------------|
G|---2-------2-------------0----------------|
D|-----2-------1-------------2--------------|
A|-------------------------3---3------------|
E|-------0-------0-3---3-5-2---2-3-5--0-----|

e|-0-0-0-000-0-0-003-3-3-30-----------------|
B|-0-0-0-002-2-2-222-2-2-20-----------------|
G|-2-2-2-222-2-2-220-0-0-000-0-000----------|
D|-2-2-2-221-1-1-110-0-0-002-2-222----------| x8
A|-1-1-1-110-0-0-000-0-0-003-3-333----------|
E|-0-0-0-000-0-0-003-3-3-302-0-320----------|

e|-0-0-0-000-0-0-003-3-3-30-----------------|
B|-0-0-0-002-2-2-222-2-2-20-----------------|
G|-2-2-2-222-2-2-220-0-0-000-0-000-0-0-0----|
D|-2-2-2-221-1-1-110-0-0-002-2-222-2-2-2----| 
A|-1-1-1-110-0-0-000-0-0-003-3-333-3-3-3----|
E|-0-0-0-000-0-0-003-3-3-302-0-320-0-0-0----|

e|-----------------3------------------------| |
B|-0-------2---------2----------------------|   |
G|---2-------2---------0---0----------------|     |
D|-----2-------1-------------2--------------|   |
A|------------------------------------------|      |
E|-------0-------0-------0-----2h3p2-0------|        |
                                                      | x2
e|-----------------3------------------------|        |
B|-0-------2---------2----------------------|     |
G|---2-------2-------------0----------------|   |
D|-----2-------1-------------2--------------|     |
A|-------------------------3---3------------|   |
E|-------0-------0-3---3-5-2---2-3-0--------| |
 
 h - hammer on
 p - pull off
Tap to rate this tab
 
# A B C D E F G H I J K L M N O P Q R S T U V W X Y Z