Song name
# A B C D E F G H I J K L M N O P Q R S T U V W X Y Z

Misc Unsigned Bands - Destrucion Of A Rose - 63 tab

/) Slide Up (h) Hammer On  (p) Pull Off  (b) Bend (~) Hold Note

INTRO
E|-----------------------------------------------|
B|-----------------------------------------------|
G|-----------------------------------------------|
D|--6/7-6-----6/7---9-7-6-6/7-6-----9-999999-7-2-|
A|--------7-4-----7-------------7-4-9-999999-7-2-|
E|----------------------------------9-999999-7-2-|    X4


E|--------------------------------------------------------------|
B|--------------------------------------------------------------|
G|--------------------------------------------------------------|
D|--4---6--4h6-----6--4h6-----4h7---6---4h6-----6---4h6-----4-0-|
A|--4---------------------------------------------------------0-|
E|--4-4--4-----4-4--4-----4-4-----4---4-----4-4---4-----4-4---0-|
      *  *     * *  *     * *     *   *     * *   *     * *


E|----------------------------------------------------------|
B|----------------------------------------------------------|
G|----------------------------------------------------------|
D|----7---6---------------------0---7---6-----------------9-|
A|--------------7---4-----4h5-4-0-----------5---5/7-7-7-7---|
E|--0---0---0-0---0---0-0-------0-0---0---0---0-------------|   X3
    *   *   * *   *   * *         *   *   *   *

E|--------------------------------------------|
B|--------------------------------------------|
G|--------------------------------------------|
D|------4-4-----7-7---------------------------|
A|----------------------5-5-----4-4-4h5-7-5-4-|
E|--444-----444-----444-----444---------------| X2
    ***     ***     ***     ***

E|--------------------------------------------|
B|--------------------------------------------|
G|--------------------------------------------|
D|------4-4-----7-7-----------------------7-6-|
A|----------------------5-5-----4-4-4h5-7-----|
E|--000-----000-----000-----000---------------| X2
    ***     ***     ***     ***
NOW PLAY THOSE TWO RIFFS AGAIN!

E|--------------------------------------------------|
B|--------------------------------------------------|
G|--11-11-11-18-18-18-16-16-16-14-14-14-13-13-13-13-|
D|--------------------------------------------------|
A|--------------------------------------------------|
E|--------------------------------------------------| X2


E|---------------------------------|
B|---------------------------15-14-|
G|--11~-14~-9-9/11~-11-13-14-------|
D|---------------------------------|
A|---------------------------------|
E|---------------------------------|

E|--------------------------------------------------|
B|--------------------------------------------------|
G|--11-11-11-18-18-18-16-16-16-14-14-14-13-13-13-13-|
D|--------------------------------------------------|
A|--------------------------------------------------|
E|--------------------------------------------------| X2



E|--10-10-10-17-17-17-16-16-16-14-14-14-12-12-12-12-10-10-10-17-17-17-16-16-16-17-17-17-21b-21--|b
B|----------------------------------------------------------------------------------------------|
G|----------------------------------------------------------------------------------------------|
D|----------------------------------------------------------------------------------------------|
A|----------------------------------------------------------------------------------------------|
E|----------------------------------------------------------------------------------------------|

E|----------------------|
B|----------------------|
G|----------------------|
D|--------------------0-|
A|--12-12-12-11-11-11-0-|
E|--------------------0-|

INTRO

E|-------|
B|-------|
G|-------|
D|--4~-4-|
A|--4~-4-|
E|--4~-4-|

E|--14~-17~-------------------------------------------------|
B|----------------------------------------------------------|
G|----------9-9/11~-11-13-14-13-11~-14~-9-9/11~-11-13-14-13-|
D|----------------------------------------------------------|
A|----------------------------------------------------------|
E|----------------------------------------------------------|


E|------------------------------|
B|------------------------15-14-|
G|--11~-14~-9-9/11~-11-13-------|
D|------------------------------|
A|------------------------------|
E|------------------------------|

E|--------------------------------------------------|
B|--------------------------------------------------|
G|--11-11-11-18-18-18-16-16-16-14-14-14-13-13-13-13-|
D|--------------------------------------------------|
A|--------------------------------------------------|
E|--------------------------------------------------| X2


E|---------------------------------|
B|---------------------------15-14-|
G|--11~-14~-9-9/11~-11-13-14-------|
D|---------------------------------|
A|---------------------------------|
E|---------------------------------|

E|--------------------------------------------------|
B|--------------------------------------------------|
G|--11-11-11-18-18-18-16-16-16-14-14-14-13-13-13-13-|
D|--------------------------------------------------|
A|--------------------------------------------------|
E|--------------------------------------------------| X2



E|--10-10-10-17-17-17-16-16-16-14-14-14-12-12-12-12-10-10-10-17-17-17-16-16-16-17-17-17-21b-21--|b
B|----------------------------------------------------------------------------------------------|
G|----------------------------------------------------------------------------------------------|
D|----------------------------------------------------------------------------------------------|
A|----------------------------------------------------------------------------------------------|
E|----------------------------------------------------------------------------------------------|

E|----------------------|
B|----------------------|
G|----------------------|
D|--------------------0-|
A|--12-12-12-11-11-11-0-|
E|--------------------0-|

E|------------------------------------------------|
B|------------------------------------------------|
G|------------------------------------------------|
D|-----------------------------------9-999999-7-2-|
A|--4~-4~-44-44~-44-2222-00-00-000~--9-999999-7-2-|
E|--4~-4~-44-44~-44-2222-00-00-000~--9-999999-7-2-|

INTRO

END
E|--
B|--
G|--
D|--0~
A|--0~
E|--0~
Tap to rate this tab
 
# A B C D E F G H I J K L M N O P Q R S T U V W X Y Z