Misc Unsigned Bands - Hugh Mesakela - Grazing In The Grass tab

-------------------------------------------------------------------------------
	 grazing in the grass- Hugh Mesakela
-------------------------------------------------------------------------------
Tabbed by:barefootboy
Email:pizzabil@yahoo.com

Tuning: standard

e|------5----8----|----4-3------------------|------|
B|-----------------|--------6-3--------------|-----|
G|-----------------|-------------5-----------|-----|
D|-----------------|-------------------6-5-3|---3--|   play twice
A|-----------------|-------------------------|-----|
E|-----------------|-------------------------|-----|

e|--------------------------|---------------------------|----------------------|--|
B|-------6------6------6--|---------------------------|----------------------|----|
G|--4-5---4-5----4-5-----|----4-3-----------2-0----|-----55555-2-5-4-|---4--------|
D|--------------------------|---------6-3-0---------3-|--3------------------|-----|    play twice
A|--------------------------|---------------------------|----------------------|--|
E|--------------------------|---------------------------|----------------------|--|




e|------5----8----|----4-3------------------|------------------------|---|
B|-----------------|--------6-3--------------|-----------------------|---|
G|-----------------|-------------5-----------|-------22222----1-0-|---0--|
D|-----------------|-------------------6-5-3|---3-----------3-------|----|    play twice
A|-----------------|-------------------------|------------------------|--|
E|-----------------|-------------------------|------------------------|--|


e|------------------------------|--|
B|------6-6-6-6-6------4--3-|---3--|
G|--------------------5--------|---|   play twice
D|-----------------------------|---|
A|-----------------------------|---|
E|------------------------------|--|

e|--------------------------|----------------------------|----------------------|--------------|
B|-------6--6ólet ring--|-------4--4--lr------------|----------------------|-------------------|
G|---5---------------------|------------------5--5--lr-|---3--3-lr------------|----------------|
D|--------------------------|----------------------------|-------------6--6-lr-|---------------|
A|--------------------------|-----------------------------|---------------------|-----3--3-lr--|
E|--------------------------|-----------------------------|---------------------|--------------|

This is Hughís horn transcribe for the guitar. I have a Tux Guitar version that I canít 
get to upload. Iíve got chords also if someone is interested.   barefootboy
Tap to rate this tab
 
# A B C D E F G H I J K L M N O P Q R S T U V W X Y Z